PrimaNota.ru - самый крупный в мире бесплатный архив песенных текстов, аккордов, табулатур и нот


Daisuke Ishiwatari - Lust Sin - таба, видео

Регистрация Запомнить меня
Войти через:  Facebook Google Twitter Vk Yandex Mail.ru

Daisuke Ishiwatari - Lust Sin - таба, видео

Печатать
Просмотров: 204
Уроки эстрадного вокала в Санкт-Петербурге
            ________________________________________________
           /                                                \
          /     Daisuke Ishiwatari - Lust SIN (BlazBlue)     \
         /                                                    \
        /              Tabbed By: Jun H. Jackson               \
       /              a.k.a. Redoubt9000 (YouTube)              \     
      /                       Night (UG)                         \
     /____________________________________________________________\


Tuning: Drop D

| /  slide
| h  hammer-on
| p  pull-off
| v  vibrato



Verse I
 Part I
1|---------------------------------------------------------------------|
2|-------------------------------------6-8p6---------------------------|
3|-7-9-10--10-9-7-9-7---6--------6-7-9-------9-9h10p9-7----------------|
4|------------------------7--7-8---------------------------------------|
5|---------------------------------------------------------------------|
6|---------------------------------------------------------------------|

1|-------------------------------------|
2|-------------------------------8-6---|
3|-----------7-----------9---(9)-----9-|
4|-7-7h8p7/5---7-7h8p7/5---7-----------|
5|-------------------------------------|
6|-------------------------------------|

1|---------------------------------------------------------------------|
2|-6--6---------------8-6---6---8-11-10~--10-8-------------------------|
3|------9-7-9-7-6---6-----9---7----------------10-9--------------------|
4|----------------7----------------------------------------------------|
5|---------------------------------------------------------------------|
6|---------------------------------------------------------------------|

1|-------------------------------------|
2|-------------------------------6-8---|
3|-----------7-----------9-7----9------|
4|-7-7h8p7/5---7-7h8p7/5---------------|
5|-------------------------------------|
6|-------------------------------------|



 Part II
1|-----------12-13~----------------------------------------------------|
2|-10--10-10--------11-10-8----8-----13-11-10-11~-10p8h10v-------------|
3|--------------------------10-----------------------------------------|
4|-------------------------------10------------------------------------|
5|---------------------------------------------------------------------|
6|---------------------------------------------------------------------|

1|---------------------------------|
2|-/13--------/13v---13p11p10-10v--|
3|-----9----9----------------------|
4|-------12------------------------|
5|---------------------------------|
6|---------------------------------|

1|-----------12-13~----------------------------------------------------|
2|-10--10-10--------11-10-8----8-----13-11-10-11~-10p8h10v-------------|
3|--------------------------10-----------------------------------------|
4|-------------------------------10------------------------------------|
5|---------------------------------------------------------------------|
6|---------------------------------------------------------------------|

1|---------------------------------------------------------------------|
2|------------------------------------------8-10-11-10-----------------|
3|-/10~--10p9p7h9v--/14--7~-----7-9-10-9-10----------------------------|
4|---------------------------------------------------------------------|
5|---------------------------------------------------------------------|
6|---------------------------------------------------------------------|



 Part III
1|--------------10-----------10-12-13-10~---15-13-12-13v---------------|
2|-(10)-10-8-------10-----10-------------------------------------------|
3|-----------10--------------------------------------------------------|
4|---------------------------------------------------------------------|
5|---------------------------------------------------------------------|
6|---------------------------------------------------------------------|

1|---------------------------------------------------------------------|
2|-11--11-13-15-13----------11-10-8-10v--------------------------------|
3|-----------------10~---10----------------7--9------------------------|
4|---------------------------------------------------------------------|
5|---------------------------------------------------------------------|
6|---------------------------------------------------------------------|

1|------------10-----------10-12-13-10---15-13-12-13v------------------|
2|-10-10-8-------10-----10---------------------------------------------|
3|---------10----------------------------------------------------------|
4|---------------------------------------------------------------------|
5|---------------------------------------------------------------------|
6|---------------------------------------------------------------------|

1|-----------------------------------------------------6-9-10v---------|
2|-11--11-13-15-13--------11-10-8--------------------8-----------------|
3|-----------------10--10---------9v--------7-9-10-7-------------------|
4|---------------------------------------------------------------------|
5|---------------------------------------------------------------------|
6|---------------------------------------------------------------------|



:Little Jig I
:Intro



Verse II
 Part I
1|---------------------------------------------------------------------|
2|-------------------------------------6-8p6---------------------------|
3|-7-9-10--10-9-7-9-7v--6--------6-7-9-------9-9h10p9-7----------------|
4|------------------------7--7-8---------------------------------------|
5|---------------------------------------------------------------------|
6|---------------------------------------------------------------------|

1|-------------------------------------|
2|-------------------------------8-6---|
3|-----------7-----------9---(9)-----9-|
4|-7-7h8p7/5---7-7h8p7/5---7-----------|
5|-------------------------------------|
6|-------------------------------------|

1|---------------------------------------------------------------------|
2|-6--6---------------8-6---6---8-11-10~--10-8-------------------------|
3|------9-7-9-7-6---6-----9---7----------------10-9--------------------|
4|----------------7----------------------------------------------------|
5|---------------------------------------------------------------------|
6|---------------------------------------------------------------------|

1|-------------------------------------|
2|-------------------------------6-8---|
3|-----------7-----------9-7----9------|
4|-7-7h8p7/5---7-7h8p7/5---------------|
5|-------------------------------------|
6|-------------------------------------|



 Part II
1|-----------12-13~----------------------------------------------------|
2|-10--10-10--------11-10-8----8-----13-11-10-11~-10p8h10v-------------|
3|--------------------------10-----------------------------------------|
4|-------------------------------10------------------------------------|
5|---------------------------------------------------------------------|
6|---------------------------------------------------------------------|

1|---------------------------------|
2|-/13--------/13v---13p11p10-10v--|
3|-----9----9----------------------|
4|-------12------------------------|
5|---------------------------------|
6|---------------------------------|

1|-----------12-13~----------------------------------------------------|
2|-10--10-10--------11-10-8----8-----13-11-10-11~-10p8h10v-------------|
3|--------------------------10-----------------------------------------|
4|-------------------------------10------------------------------------|
5|---------------------------------------------------------------------|
6|---------------------------------------------------------------------|

1|---------------------------------------------------------------------|
2|------------------------------------------8-10-11-10-----------------|
3|-/10~--10p9p7h9v--/14--7~-----7-9-10-9-10----------------------------|
4|---------------------------------------------------------------------|
5|---------------------------------------------------------------------|
6|---------------------------------------------------------------------|



 Part III
1|--------------10-----------10-12-13-10~---15-13-12-13v---------------|
2|-(10)-10-8-------10-----10-------------------------------------------|
3|-----------10--------------------------------------------------------|
4|---------------------------------------------------------------------|
5|---------------------------------------------------------------------|
6|---------------------------------------------------------------------|

1|---------------------------------------------------------------------|
2|-11--11-13-15-13----------11-10-8-10v--------------------------------|
3|-----------------10~---10----------------7--9------------------------|
4|---------------------------------------------------------------------|
5|---------------------------------------------------------------------|
6|---------------------------------------------------------------------|

1|------------10-----------10-12-13-10---15-13-12-13v------------------|
2|-10-10-8-------10-----10---------------------------------------------|
3|---------10----------------------------------------------------------|
4|---------------------------------------------------------------------|
5|---------------------------------------------------------------------|
6|---------------------------------------------------------------------|

1|-----------------------------------------------------6-9-10v---------|
2|-11--11-13-15-13--------11-10-8--------------------8-----------------|
3|-----------------10--10---------9v--------7-9-10-7-------------------|
4|---------------------------------------------------------------------|
5|---------------------------------------------------------------------|
6|---------------------------------------------------------------------|



:Little Jig II   :P



 Part 4
1|---------------------------|
2|---------------------------|
3|----------------9-10-9-10--|
4|----10-12-10-12------------|
5|-12------------------------|
6|---------------------------|

1|---------------------------------------------------|
2|-10----13-11-10-------10-11----13------------------|
3|----12----------12-10-------10-------9-10----------|
4|----------------------------------12------10-------|
5|---------------------------------------------------|
6|---------------------------------------------------|

1|---------------------------------------------------|
2|-10----11-10---------10-11---13--------------------|
3|----12-------12-10-9-------9-------9-10-9----------|
4|--------------------------------12-----------------|
5|---------------------------------------------------|
6|---------------------------------------------------|

1|---------------------------------------------------|
2|------------11-10---------------13-11-10-----------|
3|-10-9-10-12-------12-10-9----------------10--------|
4|--------------------------11-----------------------|
5|-----------------------------12--------------------|
6|---------------------------------------------------|

1|---------------------------------10-(15-13-12)-----|
2|---------------------10----10-13-------------------|
3|----9-10-12----10-12-------------------------------|
4|------------10----------12-------------------------|
5|-12------------------------------------------------|
6|---------------------------------------------------|

1|---------------------------------------------------|
2|-10----13-11-10-------10-11----13------------------|
3|----12----------12-10-------10-------9-10----------|
4|----------------------------------12------10-------|
5|---------------------------------------------------|
6|---------------------------------------------------|

1|---------------------------------------------------|
2|-10----11-10---------10-11---13--------------------|
3|----12-------12-10-9-------9-------9-10-9v---------|
4|--------------------------------12-----------------|
5|---------------------------------------------------|
6|---------------------------------------------------|

1|---------------------------------------------------|
2|------------11-10---------------13-11-10-----------|
3|-10-9-10-12-------12-10-9----------------10--------|
4|--------------------------11-----------------------|
5|-----------------------------12--------------------|
6|---------------------------------------------------|

1|---------------------------------10-(15-13-12)-----|
2|---------------------10----10-13-------------------|
3|----9-10-12----10-12-------------------------------|
4|------------10----------12-------------------------|
5|-12------------------------------------------------|
6|---------------------------------------------------|



Enjoy! Also look forward to more Tabs, as I love this OST ^_^
Check me out on YouTube (Username At Top) for Covers on these songs in the near future!
Добавлено: 17.07.2013
Вам также может быть интересно:
Другие материалы по этой песне:
  • Аккорды и текст

Страница создана 17.07.2013
http://primanota.ru/daisuke-ishiwatari/lust-sin-chords.htm
Привет, Гость.
Предлагаем пройти революционный курс по гитаре.
Подарок от PrimaNota.Ru, забирай!