PrimaNota.ru - самый крупный в мире бесплатный архив песенных текстов, аккордов, табулатур и нот


Daisuke Ishiwatari - Holy Orders Be Just Or Be Dead - таба, видео

Регистрация Запомнить меня
Войти через:  Facebook Google Twitter Vk Yandex Mail.ru

Daisuke Ishiwatari - Holy Orders Be Just Or Be Dead - таба, видео

Печатать
Просмотров: 433
Уроки эстрадного вокала в Санкт-Петербурге
yea im sure its like 99% accurate...
and this is just the lead guitar
have fun :D


Holy Orders (Be Just Or Be Dead)
from Guilty Gear X2 soundtrack


intro
E|---------------------------------------------------------------------|
B|-8-0-7-0-5-0-10-0-8-0-4-0-8-0-7-0------------------12-0-10-0-8-0-7-0-|
G|---------------------------------------------------------------------|
D|-------------------------------------------7---9---------------------|
A|-----------------------------------7--9-10---7---7-------------------|
E|---------------------------------------------------------------------|

E|-------------------------------------------------20-------20------------------------------------|
B|-15-13-12-13-17-15-13-15-15-17-15-17-15-13-12-------17-17----17-17-------------------17-0-16-17-|
G|----------------------------------------------14------------------------------------------------|
D|-------------------------------------------------------------------14-14-14-16-14-14------------|
A|------------------------------------------------------------------------------------------------|
E|------------------------------------------------------------------------------------------------|

riff 1
E||-|------------------------------------------------------------------------|-||
B||-|--8-0-7-0-5-0-10-0-8-0-5-0-8-0-7-0--8-0-7-0-5-0-10-0-8-0-5-0-13-0-12-0--|-||
G||-|o----------------------------------------------------------------------o|-||
D||-|o----------------------------------------------------------------------o|-||
A||-|------------------------------------------------------------------------|-||
E||-|------------------------------------------------------------------------|-||

riff 2
E|-----------------------------------------------------------------------------------|
B|-----------------------------------------------------------------------------------|
G|----9---11b12--11-9-8--9-11-------------------------------------------12-11--9-8---|
D|--/9--/9---------------------9-7-10-9--9-10-11--9h10p9--------------10-----------9-|
A|-------------------------------------------------------12-11-7--/12----------------|
E|-----------------------------------------------------------------------------------|

E|------------------------------------------------------------|
B|-----------------------------12--13-12-13--12-10------------|
G|----9---11---9--12-11-/13-13---------------------12-11--8-9-|
D|--/9--/9---/9-----------------------------------------------|
A|------------------------------------------------------------|
E|------------------------------------------------------------|

riff 3
E|---------------------------------------------------------|
B|---------------------------------------------------------|
G|-5-----7-----------------------------4-------------------|
D|-5-----7-----2----------------4------4-------------------|
A|-3-----5-----2----------------4----3-2-------------2---7-|
E|-------------0----3--0-5--0-3-2------------0---3---------|

E|--------------------------------------------------------|
B|--------------------------------------------------------|
G|-5-----7-----------------------------4-----8-----11---8-|
D|-5-----7-----2----------------4------4-----8-----11---8-|
A|-3-----5-----2----------------4----3-2-----6-----9----6-|
E|-------------0----3--0-5--0-3-2-------------------------|

solo part 1
E|------14-12-15--14-12-----------------------------------------------10-----------------------------|
B|-/12------------------15-13-----------------------------10--12---------13-12-10-----10---10-10/12--|
G|----------------------------11--12-11-9-------12-11-12----------11--------------12----12-----------|
D|----------------------------------------12---------------------------------------------------------|
A|------------------------------------------10-------------------------------------------------------|
E|---------------------------------------------------------------------------------------------------|

solo part 2
E|------14-12-15--22-20-19----------------20--19--20-19------------20-19--20-19------------|
B|-/12---------------------22-19--20-19-----------------22--20-----------------22-20-------|
G|-------------------------------------21-----------------------21-------------------20-21-|
D|-----------------------------------------------------------------------------------------|
A|-----------------------------------------------------------------------------------------|
E|-----------------------------------------------------------------------------------------|

solo part 3
E|------14-12-15--22-20-19---------------------------------------------10-----------------------------|
B|-/12---------------------22-19--20-19--------------------10--12---------13-12-10-----10----10-10/12-|
G|-------------------------------------21-19-----12-11-12----------11--------------12-----12----------|
D|-------------------------------------------17-------------------------------------------------------|
A|----------------------------------------------------------------------------------------------------|
E|----------------------------------------------------------------------------------------------------|

end riff
E|---------------------------|
B|---------------------------|
G|----------4-4-4-4----------|
D|----------2-2-2-2----------|
A|-2-2-2-2-----------2-2-2-2-|
E|-0-0-0-0-----------0-0-0-0-|


order:
intro
riff 1
riff 2
riff 3
solo part 1&2
intro
riff 1 x2
riff 2
riff 3
solo part 1,3,1,2
riff 1 x2
end riff
Добавлено: 23.03.2012
Другие материалы по этой песне:

Страница создана 23.03.2012
http://primanota.ru/daisuke-ishiwatari/holy-orders-be-just-or-be-dead-chords.htm
Привет, Гость.
Предлагаем пройти революционный курс по гитаре.
Подарок от PrimaNota.Ru, забирай!