PrimaNota.ru - самый крупный в мире бесплатный архив песенных текстов, аккордов, табулатур и нот


Daisuke Ishiwatari - Bloodstained Lineage - таба, видео

Регистрация Запомнить меня
Войти через:  Facebook Google Twitter Vk Yandex Mail.ru

Daisuke Ishiwatari - Bloodstained Lineage - таба, видео

Печатать
Просмотров: 136
Уроки эстрадного вокала в Санкт-Петербурге
Bloodstained Lineage (Testament's Theme)
From Guilty Gear XX
Song composed by Daisuke Ishiwatari and Kou-Ichi Seiyama
Tabbed by Stefan H
Contact: stef_hitchhiker42 (at) yahoo (dot) ca for corrections/suggestions


Gtr 1 (E A D G B E) - Rhythm w/ Distortion
Gtr 2 (E A D G B E) - Lead w/ Distortion


    mm = 160


    Gtr 1

    E   S. TE   S S S S Q       E    W
||---------------------------------|---------------------------------||
||---------------------------------|---------------------------------||
||o--------------------------------|--------------------------------o||
||o-----2---2-------------------2--|-3------------------------------o||
||---------2----0h2h3p2-2-------2--|-3-------------------------------||
||--0---------------------------0--|-1-------------------------------||
   PM


  E   S. TE   S S S S Q       E    H               H
|--------------------------------|--------------------------------|
|--------------------------------|--------------------------------|
|--------------------------------|--------------------------------|
|-----2---2-------------------2--|-3---------------0--------------|
|--------2----0h2h3p2-2-------2--|-3------------------------------|
|-0---------------------------0--|-1------------------------------|
 PM


  E   S S S S S S  E.    S  E   E    E   S S E   S S Q       E   E
|----------------------------------|--------------------------------|
|----------------------------------|--------------------------------|
|----------------------------------|--------------------------------|
|----------------------------------|--------------------------------|
|-7--------------------------------|-7---------------------------5--|
|-----0-0-7-8-7-8-10----p7-10--10--|-----0-0-5---0-0-3-------3------|
     PM..                               PM..    PM..


  E   S S S S S S  E.    S  E   E    E   S S Q       Q       E   E
|----------------------------------|--------------------------------|
|----------------------------------|--------------------------------|
|----------------------------------|--------------------------------|
|----------------------------------|-----------------5--------------|
|-7--------------------------------|-7-----------------------5---6--|
|-----0-0-7-8-7-8-10----p7-10--10--|-----0-0-5----------------------|
     PM..                               PM..


    Gtr 2
    Gtr 1*

    E   S S S S S S  E.    S  E   E    E   S S E   S S Q       E   E
||-----------------------------------|--------------------------------|
||--5--------------------------------|-5---------------------------3--|
||o---------4-5-4-5--7----p4--7---7--|---------2-------0-------0------|
||o----------------------------------|--------------------------------|
||--7--------------------------------|-7---------------------------5--|
||------0-0-7-8-7-8-10----p7-10--10--|-----0-0-5---0-0-3-------3------|
       PM..                               PM..    PM..


  E   S S S S S S  E     S  E   E    E   S S Q       Q       E   E
|----------------------------------|-----------------3---------------||
|-5--------------------------------|-5-----------------------3---4---||
|---------4-5-4-5--7----p4--7---7--|---------2----------------------o||
|----------------------------------|-----------------5--------------o||
|-7--------------------------------|-7-----------------------5---6---||
|-----0-0-7-8-7-8-10----p7-10--10--|-----0-0-5-----------------------||
     PM..                               PM..


  Gtr 2
 
  w                                E   S E   E.    E   S E   E.  
|--------------------------------|--------------------------------|
|--------------------------------|--------------------------------|
|--------------------------------|--------------------------------|
|--------------------------------|--------------------------------|
|--------------------------------|-5--p0-5---5-----5--p0-5---5----|
|--------------------------------|--------------------------------|
|
| Gtr 1
|
| E.    E   E.    E.    E   E.     w
|--------------------------------|--------------------------------|
|--------------------------------|--------------------------------|
|-4---------------4--------------|--------------------------------|
|-2-----4---4-----2-----4---4----|--------------------------------|
|-------2---2-----------2---2----|--------------------------------|
|--------------------------------|--------------------------------|


  Gtr 2
  Gtr 1*

                  /-----3-----\
  Q       Q       Q     Q     Q   
|--------------------------------|
|--------------------------------|
|-9------------------------------|
|-2-------7------/9-----8-----7--|
|---------0------/2-----1-----0--|
|--------------------------------|


    Gtr 1

    E   S S S S S S Q       S S E    E   S S S S S S E   S S E   E  
||---------------------------------|--------------------------------|
||---------------------------------|--------------------------------|
||o--------------------------------|--------------------------------|
||o-2---------------------------2--|-------------------------2------|
||--------------------------0h2----|---------------------0h2-----0--|
||------0-0-0-0-0-0-3--------------|-1---1-1-1-1-1-1-1--------------|
       PM..........                     PM............


  Gtr 2

                                                   /-----3-----\
  w                                h               Q     Q     Q
|--------------------------------|-----------------------------3---||
|--------------------------------|-----------------------3---------||
|--------------------------------|----------------/4--------------o||
|--------------------------------|--------------------------------o||
|--------------------------------|---------------------------------||
|--------------------------------|---------------------------------||
|
|                                                  /-----3-----\
| E   S S S S S S Q       S S E    E   S S S S E   Q     Q     Q
|--------------------------------|---------------------------------||
|--------------------------------|---------------------------------||
|--------------------------------|-----------------------------0--o||
|-----------------------------2--|-----------------------0--------o||
|-2-----------------------0h2----|----------------/2---------------||
|-----2-2-2-2-2-2-2--------------|-1---1-1-1-1-1-------------------||
     PM..........                     PM........


  Gtr 2
  Gtr 1*

  H.                     +E.    s  H.                     +E.    s
|--------------------------------|--------------------------------|
|--------------------------------|--------------------------------|
|-2----------------------(2)-----|-5----------------------(5)-----|
|-2----------------------(2)-----|-3----------------------(3)-----|
|--------------------------------|--------------------------------|
|--------------------------------|--------------------------------|


                                                   /-----3-----\
  H.                     +E.    s  H             a Q     Q     Q
|--------------------------------|--------------------------------|
|--------------------------------|---------------5b6-----3--------|
|-4----------------------(4)-----|-2---------------------------0--|
|-4----------------------(4)-----|-3-------------2/3-----0--------|
|--------------------------------|--------------------------------|
|--------------------------------|-----------------------------3--|


  H.                     +E.    s  H.                     +E.    s
|--------------------------------|--------------------------------|
|--------------------------------|--------------------------------|
|-0----------------------(0)-----|-5----------------------(5)-----|
|-2----------------------(2)-----|-3----------------------(3)-----|
|--------------------------------|--------------------------------|
|--------------------------------|--------------------------------|


  H.                     +E.    s  W
|--------------------------------|--------------------------------|
|--------------------------------|--------------------------------|
|-4----------------------(4)-----|-2------------------------------|
|-4----------------------(4)-----|-3------------------------------|
|--------------------------------|--------------------------------|
|--------------------------------|--------------------------------|


  Gtr 1

  H               H                H               H
|--------------------------------|--------------------------------|
|--------------------------------|--------------------------------|
|-4------------------------------|--------------------------------|
|-2---------------5--------------|-7------------------------------|
|-----------------3--------------|-5---------------5--------------|
|--------------------------------|-----------------3--------------|


  H               H                W
|--------------------------------|--------------------------------|
|--------------------------------|--------------------------------|
|-----------------3--------------|-4------------------------------|
|-5---------------1--------------|-2------------------------------|
|-3------------------------------|--------------------------------|
|--------------------------------|--------------------------------|


  S S S S S S S S S S S S S S S S  S S S S S S S S S S S S S S S S
|--------------------------------|--------------------------------|
|--------------------------------|--------------------------------|
|--------------------------------|--------------------------------|
|--------------------------------|--------------------------------|
|-2-2-2-2-2-2-2-2-2-2-2-2-2-2-2-2|-2-2-2-2-2-2-2-2-3-3-3-3-3-3-3-3|
|--------------------------------|--------------------------------|
 PM...............................................................


  S S S S S S S S S S S S S S S S  S S S S S S S S S S S S S S S S
|--------------------------------|--------------------------------|
|--------------------------------|--------------------------------|
|--------------------------------|--------------------------------|
|--------------------------------|--------------------------------|
|-5-5-5-5-5-5-5-5-6-6-6-6-6-6-6-6|-7-7-7-7-7-7-7-7-7-7-7-7-7-7-7-7|
|--------------------------------|--------------------------------|
 PM...............................................................


    Gtr 2
    Gtr 1*

    E   S S S S S S  E.    S  E   E    E   S S E   S S Q       E   E
||-----------------------------------|--------------------------------|
||--5--------------------------------|-5---------------------------3--|
||o---------4-5-4-5--7----p4--7---7--|---------2-------0-------0------|
||o----------------------------------|--------------------------------|
||--7--------------------------------|-7---------------------------5--|
||------0-0-7-8-7-8-10----p7-10--10--|-----0-0-5---0-0-3-------3------|
       PM..                               PM..    PM..


  E   S S S S S S  E     S  E   E    E   S S Q       Q       E   E
|----------------------------------|-----------------3---------------||
|-5--------------------------------|-5-----------------------3---4---||
|---------4-5-4-5--7----p4--7---7--|---------2----------------------o||
|----------------------------------|-----------------5--------------o||
|-7--------------------------------|-7-----------------------5---6---||
|-----0-0-7-8-7-8-10----p7-10--10--|-----0-0-5-----------------------||
     PM..                               PM..


       Gtr 1

       E   S S S S S S Q       S S E    E   S S S S S S E   S S E   E  
||-||---------------------------------|--------------------------------|
||-||---------------------------------|--------------------------------|
||o||o--------------------------------|--------------------------------|
||o||o-2---------------------------2--|-------------------------2------|
||-||--------------------------0h2----|---------------------0h2-----0--|
||-||------0-0-0-0-0-0-3--------------|-1---1-1-1-1-1-1-1--------------|
          PM..........                     PM............


  Gtr 2

                                                   /-----3-----\
  w                                h               Q     Q     Q
|--------------------------------|-----------------------------3---||
|--------------------------------|-----------------------3---------||
|--------------------------------|----------------/4--------------o||
|--------------------------------|--------------------------------o||
|--------------------------------|---------------------------------||
|--------------------------------|---------------------------------||
|
|                                                  /-----3-----\
| E   S S S S S S Q       S S E    E   S S S S E   Q     Q     Q
|--------------------------------|---------------------------------||
|--------------------------------|---------------------------------||
|--------------------------------|-----------------------------0--o||
|-----------------------------2--|-----------------------0--------o||
|-2-----------------------0h2----|----------------/2---------------||
|-----2-2-2-2-2-2-2--------------|-1---1-1-1-1-1-------------------||
     PM..........                     PM........


  Gtr 2
  Gtr 1*

  H.                     +E.    s  H.                     +E.    s
|--------------------------------|--------------------------------|
|--------------------------------|--------------------------------|
|-2----------------------(2)-----|-5----------------------(5)-----|
|-2----------------------(2)-----|-3----------------------(3)-----|
|--------------------------------|--------------------------------|
|--------------------------------|--------------------------------|


                                                   /-----3-----\
  H.                     +E.    s  H             a Q     Q     Q
|--------------------------------|--------------------------------|
|--------------------------------|---------------5b6-----3--------|
|-4----------------------(4)-----|-2---------------------------0--|
|-4----------------------(4)-----|-3-------------2/3-----0--------|
|--------------------------------|--------------------------------|
|--------------------------------|-----------------------------3--|


  H.                     +E.    s  H.                     +E.    s
|--------------------------------|--------------------------------|
|--------------------------------|--------------------------------|
|-0----------------------(0)-----|-5----------------------(5)-----|
|-2----------------------(2)-----|-3----------------------(3)-----|
|--------------------------------|--------------------------------|
|--------------------------------|--------------------------------|


  H.                     +E.    s  W
|--------------------------------|---------------------------------||
|--------------------------------|---------------------------------||
|-4----------------------(4)-----|-2------------------------------o||
|-4----------------------(4)-----|-3------------------------------o||
|--------------------------------|---------------------------------||
|--------------------------------|---------------------------------||


  Gtr 1

  W                                W
|--------------------------------|--------------------------------|
|--------------------------------|--------------------------------|
|--------------------------------|--------------------------------|
|--------------------------------|--------------------------------|
|--------------------------------|--------------------------------|
|-0------------------------------|-1------------------------------|


  W                                W
|--------------------------------|--------------------------------|
|--------------------------------|--------------------------------|
|--------------------------------|--------------------------------|
|--------------------------------|--------------------------------|
|--------------------------------|--------------------------------|
|-3------------------------------|-1------------------------------|


  Gtr 2

  Q       Q       Q       Q        Q       Q       Q       Q
|--------------------------------|--------------------------------|
|-5-------5-------5-------5------|-6-------6-------6-------6------|
|--------------------------------|--------------------------------|
|--------------------------------|--------------------------------|
|--------------------------------|--------------------------------|
|--------------------------------|--------------------------------|
|
| Gtr 1
|
| Q       Q       Q       Q        Q       Q       Q       Q
|--------------------------------|--------------------------------|
|--------------------------------|--------------------------------|
|-4-------4-------4-------4------|-5-------5-------5-------5------|
|-2-------2-------2-------2------|-3-------3-------3-------3------|
|--------------------------------|--------------------------------|
|--------------------------------|--------------------------------|


  Q       Q       Q       Q        Q       Q       Q       Q
|--------------------------------|--------------------------------|
|-8-------8-------8-------8------|-6-------6-------6-------6------|
|--------------------------------|--------------------------------|
|--------------------------------|--------------------------------|
|--------------------------------|--------------------------------|
|--------------------------------|--------------------------------|
|
| Q       Q       Q       Q        Q       Q       Q       Q
|--------------------------------|--------------------------------|
|--------------------------------|--------------------------------|
|-7-------7-------7-------7------|-5-------5-------5-------5------|
|-5-------5-------5-------5------|-3-------3-------3-------3------|
|--------------------------------|--------------------------------|
|--------------------------------|--------------------------------|


  Gtr 2

  w                                E   S E   E.    E   S E   E.
|--------------------------------|--------------------------------|
|--------------------------------|--------------------------------|
|--------------------------------|--------------------------------|
|--------------------------------|--------------------------------|
|--------------------------------|-5--p0-5---5-----5--p0-5---5----|
|--------------------------------|--------------------------------|
|
| Gtr 1
|
| E.    E   E.    E.    E   E.     w
|--------------------------------|--------------------------------|
|--------------------------------|--------------------------------|
|-------4---------------4--------|--------------------------------|
|-4-----2---4-----4-----2---4----|--------------------------------|
|-2---------2-----2---------2----|--------------------------------|
|--------------------------------|--------------------------------|


  w                                E   S E   E.    E   S E   E.
|--------------------------------|--------------------------------|
|--------------------------------|--------------------------------|
|--------------------------------|--------------------------------|
|--------------------------------|--------------------------------|
|--------------------------------|-5--p0-5---5-----5--p0-5---5----|
|--------------------------------|--------------------------------|
|
| E.    E   E.    E.    E   E.     w
|--------------------------------|--------------------------------|
|--------------------------------|--------------------------------|
|-4-----4---------4-----4--------|--------------------------------|
|-2-----2---4-----2-----2---4----|--------------------------------|
|-----------2---------------2----|--------------------------------|
|--------------------------------|--------------------------------|


  Gtr 1

  H               H                H               H
|--------------------------------|--------------------------------|
|--------------------------------|--------------------------------|
|-4------------------------------|--------------------------------|
|-2---------------5--------------|-7------------------------------|
|-----------------3--------------|-5---------------5--------------|
|--------------------------------|-----------------3--------------|


  H               H                W
|--------------------------------|--------------------------------|
|--------------------------------|--------------------------------|
|-----------------3--------------|-4------------------------------|
|-5---------------1--------------|-2------------------------------|
|-3------------------------------|--------------------------------|
|--------------------------------|--------------------------------|


  S S S S S S S S S S S S S S S S  S S S S S S S S S S S S S S S S
|--------------------------------|--------------------------------|
|--------------------------------|--------------------------------|
|--------------------------------|--------------------------------|
|--------------------------------|--------------------------------|
|-2-2-2-2-2-2-2-2-2-2-2-2-2-2-2-2|-2-2-2-2-2-2-2-2-2-2-2-2-2-2-2-2|
|--------------------------------|--------------------------------|
 PM...............................................................


  S S S S S S S S S S S S S S S S  S S S S S S S S S S S S S S S S
|--------------------------------|--------------------------------|
|--------------------------------|--------------------------------|
|--------------------------------|--------------------------------|
|-----------------1-1-1-1-1-1-1-1|-2-2-2-2-2-2-2-2-4-4-4-4-4-4-4-4|
|-3-3-3-3-3-3-3-3----------------|--------------------------------|
|--------------------------------|--------------------------------|
 PM...............................................................


  E   S S S S S S E   S S S S S S  E   S S S S S S E   S S S S S S
|--------------------------------|--------------------------------|
|--------------------------------|--------------------------------|
|-4------------------------------|--------------------------------|
|-2---2-2-2-2-2-2-5--------------|-7------------------------------|
|-----------------3---3-3-3-3-3-3|-5---5-5-5-5-5-5-5--------------|
|--------------------------------|-----------------3---3-3-3-3-3-3|
     PM..........    PM..........     PM..........    PM..........


  Gtr 2

  w                                h               S E   S S S S S
|--------------------------------|--------------------------------|
|--------------------------------|-----------------5p3------------|
|--------------------------------|-----------------------5p4------|
|--------------------------------|---------------------------7p5p4|
|--------------------------------|--------------------------------|
|--------------------------------|--------------------------------|
|
| E   S S S S S S E   S S S S S S  E   S S S S S S S E   S S S S S
|--------------------------------|--------------------------------|
|--------------------------------|--------------------------------|
|-----------------3--------------|-4------------------------------|
|-5---------------1---1-1-1-1-1-1|-2---2-2-2-2-2-2-2p0------------|
|-3---3-3-3-3-3-3----------------|-----------------------3p2p0----|
|--------------------------------|-----------------------------3p2|
     PM..........    PM..........     PM..........


  S S S S S S S S S S S S S S S S  S S S S S S S S S S S S S S S S
|--------------------------------|--------------------------------|
|--------------------------------|--------------------------------|
|--------------------------------|--------------------------------|
|--------------------------------|--------------------------------|
|-2-2-2-2-2-2-2-2-2-2-2-2-2-2-2-2|-2-2-2-2-2-2-2-2-3-3-3-3-3-3-3-3|
|--------------------------------|--------------------------------|
 PM...............................................................


  S S S S S S S S S S S S S S S S  S S S S S S S S S S S S S S S S
|--------------------------------|--------------------------------|
|--------------------------------|--------------------------------|
|--------------------------------|--------------------------------|
|--------------------------------|--------------------------------|
|-5-5-5-5-5-5-5-5-6-6-6-6-6-6-6-6|-7-7-7-7-7-7-7-7-7-7-7-7-7-7-7-7|
|--------------------------------|--------------------------------|
 PM...............................................................


    Gtr 2
    Gtr 1*

    E   S S S S S S  E.    S  E   E    E   S S E   S S Q       E   E
||-----------------------------------|--------------------------------|
||--5--------------------------------|-5---------------------------3--|
||o---------4-5-4-5--7----p4--7---7--|---------2-------0-------0------|
||o----------------------------------|--------------------------------|
||--7--------------------------------|-7---------------------------5--|
||------0-0-7-8-7-8-10----p7-10--10--|-----0-0-5---0-0-3-------3------|
       PM..                               PM..    PM..


  E   S S S S S S  E     S  E   E    E   S S Q       Q       E   E
|----------------------------------|-----------------3---------------||
|-5--------------------------------|-5-----------------------3---4---||
|---------4-5-4-5--7----p4--7---7--|---------2----------------------o||
|----------------------------------|-----------------5--------------o||
|-7--------------------------------|-7-----------------------5---6---||
|-----0-0-7-8-7-8-10----p7-10--10--|-----0-0-5-----------------------||
     PM..                               PM..


  Gtr 1

  E.    E   E.    E.    E   E.     w
|--------------------------------|--------------------------------||
|--------------------------------|--------------------------------||
|--------------------------------|--------------------------------||
|-9-----9---------9-----9--------|--------------------------------||
|-7-----7---9-----7-----7---9----|--------------------------------||
|-----------7---------------7----|-0------------------------------||



* The note on top is Gtr 2, the note below is Gtr 1; where there is only one note 
indicated, only Gtr 1 plays it.


======================================================================

Rhythmic notation:
T/t     = thirty-second note/rest (1/2 sixteenth note/rest)
S/s     = sixteenth note/rest
E/e     = eighth note/rest
Q/q     = quarter note/rest
H/h     = half note/rest
W/w     = whole note/rest
X./x.   = dotted "x" note/rest (3/2 rhythmic value of un-dotted note/rest)
+       = tie note => keep holding the note
/-##-\  = ##-tuplet (triplet, quadruplet, etc.)
a       = grace note ("appoggiatura")

Fingering notation:
##b&&   = bend note from ## to && (&& > ##)
&&pb##  = pre-bend note to && and release to ## (&& > ##)
h       = hammer-on
p       = pull-off
tr      = tremolo strum
~       = finger vibrato
V       = whammy bar "vibrato"
x       = muted fret (LH mute)
<##>    = harmonic -> N = Natural
                      S = Semi
                      P = Pitch
                      A = Artificial
                      T = Tapped
(##)/&& = slide up (from ##) to &&
(&&)\## = slide down (from &&) to ##
##/     = slide up from ## to "off" (usually around where fretboard meets body)
##\     = slide down from ## to "off" (usually around nut)
(##)    = tie note => keep holding the note
PM...   = palm mute (starting from "PM" until last period)
Добавлено: 04.03.2012
Другие материалы по этой песне:
  • Аккорды и текст

Страница создана 04.03.2012
http://primanota.ru/daisuke-ishiwatari/bloodstained-lineage-chords.htm
Привет, Гость.
Предлагаем пройти революционный курс по гитаре.
Подарок от PrimaNota.Ru, забирай!