PrimaNota.ru - самый крупный в мире бесплатный архив песенных текстов, аккордов, табулатур и нот


Daisuke Ishiwatari - Blazblue - Gale Bangs Theme - таба, видео

Регистрация Запомнить меня
Войти через:  Facebook Google Twitter Vk Yandex Mail.ru

Daisuke Ishiwatari - Blazblue - Gale Bangs Theme - таба, видео

Печатать
Просмотров: 138
            ________________________________________________
           /                                                \
          /     Daisuke Ishiwatari - Gale (BlazBlue)         \
         /                                                    \
        /              Tabbed By: Jun H. Jackson               \
       /              a.k.a. Redoubt9000 (YouTube)              \     
      /                       Night (UG)                         \
     /                   hotlava900@hotmail.com                   \
    /______________________________________________________________\
            Feel Free to Rate, as well as visit me on YouTube
                          Updated: 8/22/2009

  	
Tuning: Standard

| /  slide
| h  hammer-on
| p  pull-off
| v  vibrato
|(#) *Just a little change up, something you can decide to play instead*
| .  palm mute (You will find these under the Tab "Measure" or "Bar")



 Intro/Main Riff
e|------------------------9-x-5---------------------------5-5-/7----------|
B|---------3--5-x-3-x-5-x-9-x-5--5/-3/-5---3--3/5--/7-----5-5-/7-5-5/7\5--|
G|---------2--4-x-2-x-4-x--------4/-2/-4---2--2/4-----7----------4--------|
D|------------------------------------------------------7-----------------|
A|-\2--222----------------------------------------------------------------|
E|------------------------------------------------------------------------|
       ...

e|-----------------9-10-9-x-5-x-0-----------------5-5-7----0--------------|
B|-------3--5-x-3--9-10-9-x-5-x-0--3--3/5--/7-----5-5-7----0-5/7\5--------|
G|-------2--4-x-2------------------2--2/4-----7---------------------------|
D|----------------------------------------------7-------------------------|
A|-222--------------------------------------------------------------------|
E|------------------------------------------------------------------------|
   ...

e|---------------------------------------------------|
B|---------------------------------------------------|
G|---------------------------------------------------| 
D|-7-7----7--7--7-7--6--4----------------------------|  
A|-5-5----5--5--5-5--4--2--2--4--5-------------------|
E|-------------------------0--2--3-------------------|
 

Verse I
 Part I
e|----------5-------------------------------------------|
B|------7-5---7v---7-5----------------------------------|
G|--4-7----------------7--6h7p6-------------------------|
D|------------------------------7-4/7-------------------|
A|------------------------------------------------------|
E|------------------------------------------------------|

e|----------5--------------------------12-10-12/14v-----|
B|------7-5---8v--8-8p7-5---5---5/7---------------------|
G|--4-7-------------------7---7-------------------------|
D|------------------------------------------------------|
A|------------------------------------------------------|
E|------------------------------------------------------|

 Part II
e|----------5-------------------------------------------|
B|------7-5---7v---7-5----------------------------------|
G|--4-7----------------7--6h7p6-------------------------|
D|------------------------------7-4/7-------------------|
A|------------------------------------------------------|
E|------------------------------------------------------|

e|----------5-5/7---------------5-5v---------7--/10-9v--|
B|------7-5-------8-8-8p7-5---5-------------------------|
G|--4-7---------------------7---------------------------|
D|------------------------------------------------------|
A|------------------------------------------------------|
E|------------------------------------------------------|


Bridge
e|-----------------5------------------------------------|
B|-------------------8-7-8-7v---------------------------|
G|---7-6---4-7-6-----------------4--7-6-7-6-4-----------|
D|-7-------------7----------------------------4/7v------|
A|------------------------------------------------------|
E|------------------------------------------------------|

e|-------------------------------------------------------------------|
B|-------------------10-10v---10/12----------------------------------|
G|-------------------------------------------------12-11-------------|
D|-/9--9-11-12----12----------------12-11-12-11-14-------14-14-------|
A|-------------12----------------------------------------------------|
E|-------------------------------------------------------------------|


Chorus
e|--------------------------------------14--15-14-15-14-12---14-15-17-19--|
B|-------------------15-17--------15-17-----------------------------------|
G|-12-14-14/16-14--14------14---14----------------------------------------|
D|------------------------------------------------------------------------|
A|------------------------------------------------------------------------|
E|------------------------------------------------------------------------|

e|--14v--14-12-14v---14-12-14v-15--15/17-15-14-12v------------------------|
B|------------------------------------------------------------------------|
G|------------------------------------------------------------------------|
D|------------------------------------------------------------------------|
A|------------------------------------------------------------------------|
E|------------------------------------------------------------------------|

e|-------------------------14--15-14-15-14-12---14-15-17-19---------------|
B|------15-17--------15-17------------------------------------------------|
G|--14v-------14--14------------------------------------------------------|
D|------------------------------------------------------------------------|
A|------------------------------------------------------------------------|
E|------------------------------------------------------------------------|

e|-17v--15v---14-15p14-12-------------------------------------------------|
B|------------------------15-14--12-11-12--14-15----17-15-14-15v----------|
G|-----------------------------------------------14-----------------------|
D|------------------------------------------------------------------------|
A|------------------------------------------------------------------------|
E|------------------------------------------------------------------------|

*I'll add the solo later, atm I'm juggling several cover projects :P

Enjoy! Also look forward to more Tabs, as I love this OST ^_^
Check out my channel on YouTube (Redoubt9000) for covers on these songs and others 
in the near future!
Добавлено: 29.11.2013
Другие материалы по этой песне:
  • Аккорды и текст

Страница создана 29.11.2013
http://primanota.ru/daisuke-ishiwatari/blazblue-gale-bangs-theme-chords.htm
Привет, Гость.
Предлагаем пройти революционный курс по гитаре.
Подарок от PrimaNota.Ru, забирай!