PrimaNota.ru - самый крупный в мире бесплатный архив песенных текстов, аккордов, табулатур и нот


Dairybeat - Olympic Sunday - таба, видео

Регистрация Запомнить меня
Войти через:  Facebook Google Twitter Vk Yandex Mail.ru

Dairybeat - Olympic Sunday - таба, видео

Печатать
Просмотров: 177
Уроки эстрадного вокала в Санкт-Петербурге
OLYMPIC SUNDAY: DAIRYBEAT (Demo - 2009) (Cees Brijde) 4/4 - 92
(Adapted, Arranged, Performed and Recorded by: Andre H. Hofman)

Please list my Tab, so I can link it to it's music on YouTube, Thanks!

4/2: Slide

Intro: |A    |./.

Verse 1:
                          (Asus2)
       |A   D       |A        s2|A   D       |E
e|---------------------------------------------|
b|------2---3--2-----------------2---3--2------|
g|--2-4----------4-1-2-------2-4----------4-2-4|
d|2--------------------2---2-------------------|
a|---------------------------------------------|
e|---------------------------------------------|

       |A   Bm7     |D      |A   E     |D        |A
e|-------------------------------------------------|
b|------2---3--2-----------------------------------|
g|--2-4----------4-2-2---------2-2-1-2/4-2----2-4-2|
d|2--------------------4---4/2--------------2------|
a|-------------------------------------------------|
e|-------------------------------------------------|

Verse 2:
                                (Asus2)
        |A   D         |A          s2 |A  D         |E
e|-----7-9---10--9-7----------------7--9--10--9-7----7|
b|--10---------------9-10--------10---------------10--|
g|9-----------------------9----9----------------------|
d|----------------------------------------------------|
a|----------------------------------------------------|
e|----------------------------------------------------|

          |A   Bm7       |D        |A     E    |D       |A
e|12-12-10-9---10--9-7----------------5-5-4-5/7-5----5-7-5|
b|---------------------10-10/7----7/5--------------5------|
g|--------------------------------------------------------|
d|--------------------------------------------------------|
a|--------------------------------------------------------|
e|--------------------------------------------------------|

Chorus:

  D        |G        |C          |D
e|--10--------10--7---8-8-8-8-7---10|
b|------10------------8-8-8-8-8-8---|
g|----------------------------------|
d|----------------------------------|
a|----------------------------------|
e|----------------------------------|

                                  / (Chord Break)
 |D        |G        |C          |A
e|--10--------10--7---8-8-8-8-7-----|
b|------10------------8-8-8-8-8-8-10|
g|----------------------------------|
d|----------------------------------|
a|----------------------------------|
e|----------------------------------|

Bridge:
                          (Asus4)
       |A   D       |A        s4|A   D       |E
e|---------------------------------------------|
b|5-5-3-2---3--2-----2-----5-5-3-2---3--2------|
g|---------------4-2---2------------------4-2-4|
d|---------------------------------------------|
a|---------------------------------------------|
e|---------------------------------------------|

       |A   Bm7     |D         |A    E  |D        |A
e|--------------------------------------------------|
b|------2---3--2----------------2--1-2/4-2-----2-4-2|
g|--2-4----------4-2-2/8---4--2--------------2------|
d|2-------------------------------------------------|
a|--------------------------------------------------|
e|--------------------------------------------------|

Chorus:

 |D        |G        |C          |D
e|--10--------10--7---8-8-8-8-7---10|
b|------10------------8-8-8-8-8-----|
g|----------------------------------|
d|----------------------------------|
a|----------------------------------|
e|----------------------------------|

                                  / (Chord Break)
 |D        |G        |C          |A
e|--10--------10--7---8-8-8-8-7-----|
b|------10------------8-8-8-8-8-8-10|
g|----------------------------------|
d|----------------------------------|
a|----------------------------------|
e|----------------------------------|

Verse 3:
                              (Asus2)
        |A   D        |A          s2|A   D         |E
e|-----7-9---10--9-7---------------7-9---10--9-7----7|
b|--10---------------9-10-------10---------------10--|
g|9-----------------------9---9----------------------|
d|---------------------------------------------------|
a|---------------------------------------------------|
e|---------------------------------------------------|

          |A   Bm7       |D       |A      E    |D       |A
e|12-12-10-9---10--9-7----------------5-5-4-5/7-5----5-7-5|
b|---------------------10-10/7----7/5--------------5------|
g|--------------------------------------------------------|
d|--------------------------------------------------------|
a|--------------------------------------------------------|
e|--------------------------------------------------------|

Outro:
                    / (Chord Break)
       |A          |A
e|----------------7-9--9--7---|
b|-------------10-----------10|
g|--2-4-2----9----------------|
d|2---------------------------|
a|----------------------------|
e|----------------------------|


Copyright: Cees Brijde, Zuivelstraat 2, 1445 MH Purmerend, Netherlands
Contact  : c.brijde@chello.nl
Dairybeat: http://www.soundclick.com/bands/pagemusic.cfm?bandID=137360
Contact  : dairybeat@kpnmail.nl
Добавлено: 22.04.2012
Другие материалы по этой песне:
  • Аккорды и текст

Страница создана 22.04.2012
http://primanota.ru/dairybeat/olympic-sunday-chords.htm
Привет, Гость.
Предлагаем пройти революционный курс по гитаре.
Подарок от PrimaNota.Ru, забирай!