PrimaNota.ru - самый крупный в мире бесплатный архив песенных текстов, аккордов, табулатур и нот


Dairybeat - El Nido - The Nest - Demo - таба, видео

Регистрация Запомнить меня
Войти через:  Facebook Google Twitter Vk Yandex Mail.ru

Dairybeat - El Nido - The Nest - Demo - таба, видео

Печатать
Просмотров: 89
DAIRYBEAT: EL NIDO (The Nest) (c. André H. Hofman - 2004 - DEMO) 4/4 - 100

|./.   |: Repeat the previous Chord and Measure of 4-counts.


Intro: 

  A    |A       |./.     |./.     |
e|------9--9-7-5------------------|
b|--------------------------------|
g|---------------6--6-4-2---------|
d|-------------------------------2|
a|------------------------4--4-2--|
e|--------------------------------|

Verse 1:

 |A    |E       |A     |./.   |./.   |E       |A      |A7    |
e|-----------------------------------------------------------|
b|-----------2-----------------------------2-----------2-----|
g|2-----1--4---4-2--------------2---2-1--4---4-2---2-4------2|
d|------------------2-4-2---2-2------------------------------|
a|-----------------------------------------------------------|
e|-----------------------------------------------------------|

 |D    |./.     |A     |./.   |./.   |E       |A     |E      |
e|-----------2-0---------------------------------------------|
b|3--------3-----3-2-----------------------2----------------5|
g|--------------------4-2------2------1--4---4-2-------------|
d|--------------------------2---------------------2-4-2------|
a|-----------------------------------------------------------|
e|-----------------------------------------------------------|

Verse 2:

 |A    |E       |A      |./.   |./.   |E       |A       |A7     |
e|5-----4--7-9-7----------------5----5-4--7-9-7--------7-9------|
b|---------------10--5-7-5----5-----------------10--10--------10|
g|--------------------------------------------------------------|
d|--------------------------------------------------------------|
a|--------------------------------------------------------------|
e|--------------------------------------------------------------|

 |D     |./.      |A      |./.   |./.   |E       |A        |A7    |
e|10--10-14-12-10--9----7--5------5------4--7-9-7---------7-9-----|
b|------------------------------5-----------------10---10---------|
g|----------------------------------------------------------------|
d|----------------------------------------------------------------|
a|----------------------------------------------------------------|
e|----------------------------------------------------------------|

Chorus:

 |D            |./.          |A          |./.        |E        |
e|10--10--7-----10--10--7-----9--9--7-----9--9--7-----7--7-----|
b|----------10------------10----------10----------10-------10-9|
g|-------------------------------------------------------------|
d|-------------------------------------------------------------|
a|-------------------------------------------------------------|
e|-------------------------------------------------------------|
 |./.       |A              |A7    |D            |./.         |
e|7--7---------------------7-9------10--14-12-10--10--14-12-10|
b|-----10-9--10--9-10-9-10------------------------------------|
g|------------------------------------------------------------|
d|------------------------------------------------------------|
a|------------------------------------------------------------|
e|------------------------------------------------------------|

 |A          |./.        |E         |./.       |A      |E   E7|
e|9--12-10-9--9--12-10-9--7--10-9-7--7--10-9-7--5-------------|
b|--------------------------------------------------5-7-5-----|
g|------------------------------------------------------------|
d|------------------------------------------------------------|
a|------------------------------------------------------------|
e|-----------------------------------------------------------0|

Verse 3:

 |A    |E       |A      |./.    |./.   |E       |A     |A7     |
e|-------------------------------------------------------------|
b|-------------------------------------------------------------|
g|-------------------------------------------------------------|
d|-------------------------------------------------------------|
a|0--------2-4-2-0----------------0--------2-4-2-0--0-2--4----0|
e|------4------------0-2-0------0------4-----------------------|

 |D    |./.       |A     |./.    |./.  |E        |A      |E       |
e|----------------------------------------------------------------|
b|----------------------------------------------------------------|
g|----------------------------------------------------------------|
d|0--------0-4-2-0-----------------------------------------------2|
a|-----------------4---2--0-------0---------2-4-2-0---------------|
e|------------------------------0-------4--------------0-2-0------|

Bridge + Outro:

 |A    |E       |A      |E     |A     |E        |A     |
e|------------------------------5----5-4--7-9-7--------|
b|-----------2----------------5------------------10----|
g|2-----1--4---4-2-------------------------------------|
d|-------------------2-4--2----------------------------|
a|-----------------------------------------------------|
e|-----------------------------------------------------|

                            /  / (Breaks)
 |A       |./.      |./.    E7|A      |
e|9--9-7-5----------------------------|
b|------------------------------------|
g|---------6--6--4-2------------------|
d|------------------------------------|
a|-------------------4--4-2----0------|
e|--------------------------0---------|


DAIRYBEAT, André H. Hofman, Purmerend, The Netherlands,
TABS, ORIGINALS, COVERS, BACKING TRACKS & INFO
(Use only Dairybeat TABS for all BACKING TRACKS):

600+ Free* Dairybeat & Various TABS in MS-Word;
180+ Free* Dairybeat ORIGINALS, COVERS & BACKING TRACKS in WAV or MP3 on:
http://1drv.ms/1O27POI

Dairybeat Free* Originals, Covers & Backing Tracks in MP3 on:
http://www.soundclick.com/bands/default.cfm?bandID=137360&content=music

Dairybeat Free* Originals, Covers & Backing Tracks in WAV on:
https://soundcloud.com/dairybeat

Dairybeat promotion on:
https://www.youtube.com/user/Dairybeat
Добавлено: 21.10.2015
Другие материалы по этой песне:
  • Аккорды и текст

Страница создана 21.10.2015
http://primanota.ru/dairybeat/el-nido-nest-demo-chords.htm
Привет, Гость.
Предлагаем пройти революционный курс по гитаре.
Подарок от PrimaNota.Ru, забирай!