PrimaNota.ru - самый крупный в мире бесплатный архив песенных текстов, аккордов, табулатур и нот


Daft Punk - The Grid - бас-таба, видео

Регистрация Запомнить меня
Войти через:  Facebook Google Twitter Vk Yandex Mail.ru

Daft Punk - The Grid - бас-таба, видео

Печатать
Просмотров: 210
Авторы музыки: Thomas Bangalter, Guy-Manuel de Homem-Christo

---THE GRID---
---DAFT PUNK--

Bass comes in just before 00:10

G|----------------|
D|----------------|
A|----------------|
E|4-4-4-4-4-4-4-4-|

Repeat that riff until just before 00:47, then play:

G|-------------------------------------------------------------------------|
D|-------------------------------------------------------------------------|
A|--6~-----------6-4~-----------4-2~-----------2-1~------------------------|
E|4------------4--------------4--------------4--------------3-6-4~---------|

G|------------------------------------|
D|------------------------------------|
A|------------------------------------|
E| 4-7~---------4-7-9~---------0-2-4~-|


To get the rhythm, it's best to play along with the song.

The words from 00:13 to 00:46 are:

	The Grid: A digital frontier.
	I tried to picture clusters of information as they moved through the computer.
	What did they look like?
	Ships? Motorcycles?
	Were the circuits like freeways?
	I kept dreaming of a world I thought I'd never see.
	And then, one day...
	...I got in.

It's a really easy song to play, and pretty quick, too. Have fun!
Добавлено: 13.06.2012
Другие материалы по этой песне:

Страница создана 18.03.2012
http://primanota.ru/daft-punk/the-grid-chords.htm
Привет, Гость.
Предлагаем пройти революционный курс по гитаре.
Подарок от PrimaNota.Ru, забирай!