PrimaNota.ru - самый крупный в мире бесплатный архив песенных текстов, аккордов, табулатур и нот


Daft Punk - Giorgio By Moroder - текст песни, таба, видео

Регистрация Запомнить меня
Войти через:  Facebook Google Twitter Vk Yandex Mail.ru

Daft Punk - Giorgio By Moroder - текст песни, таба, видео

Печатать
Просмотров: 274
Уроки эстрадного вокала в Санкт-Петербурге
Авторы: Thomas Bangalter, Giorgio Moroder, Guy-Manuel de Homem-Christo

-------------------------------------------------------------------------------
			     Giorgio by Moroder - Daft Punk
-------------------------------------------------------------------------------
Tabbed by:Guitarzack1


This song can be played as tap or by strumming, didn't see a tab for the whole song so thought 
I might as well make one. It's pretty accurate and sounds the same as the song.

************************************

| /   slide up
| \   slide down
| h   hammer-on
| p   pull-off
| ~   vibrato
| +   harmonic
| x   Mute note
| b   Bend
| pb  Pre-bend
| br  Bend release
| pbr Pre-bend release
| brb Bend release bend

************************************


e|-------------------------------------------------------------------------------------|
B|-------------------------------------------------------------------------------------|
G|-------------------------------------------------------------------------------------|
D|--------------------14---------------------------------------14----------------------|
A|-12-0-15-0--14-0-15----0-12-15-0-14-0-15-12-0-12-15-0-14-0-15---0-12-15-0-14-0-15-12-|
E|-------------------------------------------------------------------------------------|

e|-------------------------------------------------------------------------------------|
B|-------------------------------------------------------------------------------------|
G|-------------------------------------------------------------------------------------|
D|-------------------------------------------------------------------------------------|
A|--------------------14---------------------------------------14----------------------|
E|-12-0-15-0--14-0-15----0-12-15-0-14-0-15-12-0-12-15-0-14-0-15---0-12-15-0-14-0-15-12-|

e|-------------------------------------------------------------------------------------|
B|-------------------------------------------------------------------------------------|
G|-------------------------------------------------------------------------------------|
D|--------------------14---------------------------------------14----------------------|
A|-12-0-15-0--14-0-15----0-12-15-0-14-0-15-12-0-12-15-0-14-0-15---0-12-15-0-14-0-15-12-|
E|-------------------------------------------------------------------------------------|

e|-------------------------------------------------------------------------------------|
B|-------------------------------------------------------------------------------------|
G|-------------------------------------------------------------------------------------|
D|-------------------------------------------------------------------------------------|
A|--------------------14---------------------------------------14----------------------|
E|-12-0-15-0--14-0-15----0-12-15-0-14-0-15-12-0-12-15-0-14-0-15---0-12-15-0-14-0-15-12-|

e|-------------------------------------------------------------------------------------|
B|-------------------------------------------------------------------------------------|
G|-------------------------------------------------------------------------------------|
D|------------------10-----------------------------------------12----------------------|
A|-8-8-12-8-10-8-12----8-10-12-8-10-8-12-8-10-10-14-10-12-10-14---10-12-14-10-12-10-14-|
E|-------------------------------------------------------------------------------------|

e|---------------------------------------------------------------------------|
B|---------------------------------------------------------------------------|
G|---------------------------------------------------------------------------|
D|---------------7--------------------------------9--------------------------|
A|-5-5-8-5-7-5-8--5-7-8-5-7-5-8-5-7-7-10-7-9-7-10---7-9-10-7-9-7-10----------|
E|---------------------------------------------------------------------------|

e|-------------------------------------------------------------------------------------|
B|-------------------------------------------------------------------------------------|
G|-------------------------------------------------------------------------------------|
D|------------------10-----------------------------------------12----------------------|
A|-8-8-12-8-10-8-12----8-10-12-8-10-8-12-8-10-10-14-10-12-10-14---10-12-14-10-12-10-14-|
E|-------------------------------------------------------------------------------------|

e|--------------------------------------------|
B|--------------------------------------------|
G|--------------------------------------------|
D|-----------------9--------------------------|
A|-7-7-10-7-9-7-10---7-9-10-7-9-7-10----------|
E|--------------------------------------------|

This all repeats in that order throughout the whole song.

Solo: 

The solo can be played as a tap or by sliding up and down.

e|--------------------------------------------------------------------------|
B|--------------------------------------------------------------------------|
G|------------------------------12h14--------------------------------12h14--|
D|-7-9-10-9-10-12-10-12-14-12-14--------7-9-10-9-10-12-10-12-14-12-14-------|
A|--------------------------------------------------------------------------|
E|--------------------------------------------------------------------------|

e|--------------------------------------------------------------------------|
B|--------------------------------------------------------------------------|
G|--------------------------------------------------------------------------|
D|------------------------------12h14-------------------------------12/14\12|
A|-7-9-10-9-10-12-10-12-14-12-14-------7-9-10-9-10-12-10-12-14-12-14--------|
E|--------------------------------------------------------------------------|

e|--------------------------------------------------------------------------|
B|--------------------------------------------------------------------------|
G|------------------------------12h14--------------------------------12h14--|
D|-7-9-10-9-10-12-10-12-14-12-14--------7-9-10-9-10-12-10-12-14-12-14-------|
A|--------------------------------------------------------------------------|
E|--------------------------------------------------------------------------|

e|--------------------------------------------------------------------------|
B|--------------------------------------------------------------------------|
G|--------------------------------------------------------------------------|
D|------------------------------12h14-------------------------------12/14\12|
A|-7-9-10-9-10-12-10-12-14-12-14-------7-9-10-9-10-12-10-12-14-12-14--------|
E|--------------------------------------------------------------------------|
 
e|--------------------------------------------------------------------------|
B|--------------------------------------------------------------------------|
G|------------------------10-9----------------------------12----------------|
D|-3-5-7-5-7-9-7-9-10-9-10------5-7-9-7-9-10-9-10-12-10-12------------------|
A|--------------------------------------------------------------------------|
E|--------------------------------------------------------------------------|

e|--------------------------------------------------------------------------|
B|--------------------------------------------------------------------------|
G|--------------------------------------------------------------------------|
D|---------------------------12-------------------------------12/14\12------|
A|-5-7-8-7-8-10-8-10-12-10-12----7-9-10-9-10-12-10-12-14-12-14--------------|
E|--------------------------------------------------------------------------|

e|--------------------------------------------------------------------------|
B|--------------------------------------------------------------------------|
G|------------------------10-9----------------------------12----------------|
D|-3-5-7-5-7-9-7-9-10-9-10------5-7-9-7-9-10-9-10-12-10-12------------------|
A|--------------------------------------------------------------------------|
E|--------------------------------------------------------------------------|

e|-----------------------------------------------------------------------------|
B|-----------------------------------------------------------------------------|
G|-----------------------------------------------------------------------------|
D|-------------------------------12/14\12-----------------------------12/14\12-|
A|-7-9-10-9-10-12-10-12-14-12-14---------7-9-10-9-10-12-10-12-14-12-14---------|
E|-----------------------------------------------------------------------------|


Добавлено: 01.07.2014
Другие материалы по этой песне:

Страница создана 30.06.2013
http://primanota.ru/daft-punk/giorgio-by-moroder-chords.htm
Привет, Гость.
Предлагаем пройти революционный курс по гитаре.
Подарок от PrimaNota.Ru, забирай!