PrimaNota.ru - самый крупный в мире бесплатный архив песенных текстов, аккордов, табулатур и нот


Dads - Bakefast At Piffanys - таба, видео

Регистрация Запомнить меня
Войти через:  Facebook Google Twitter Vk Yandex Mail.ru

Dads - Bakefast At Piffanys - таба, видео

Печатать
Просмотров: 59
DGDF#AD

for real i spent like 4 hours watching them play it acoustically and this is what I came 
up with, don't h8 if it isn't super right but it sounds dope on this acoustic guitar 
and it's better than nothing

Intro/Verse

(listen for rhythms, pretty obvious when the chords change too.)
D:--0--0--9--7-|
A:--0--4--12-9-|
F#--5--5--10-8-|
D:--0--0--9--7-|
G:--0--0--9--7-|
D:--5--5--9--7-|

Chorus
D:--7--7--14-12--9--7-|
A:--9--0--0--0--12--9-|
F#--8--8--0--0--10--8-|
D:--7--9--0--0---9--7-|
G:--7--0--0--0---9--7-|
D:--7--0--0--0---9--7-| (x4)

Verse
D:--0--0--9--7-|
A:--0--4--12-9-|
F#--5--5--10-8-|
D:--0--0--9--7-|
G:--0--0--9--7-|
D:--5--5--9--7-|

Bridge
*The morning, each eyes peel...*
D:------------------------|
A:--0--0--0---------------|
F#--0--0--0---------------|
D:--0--0--0---------------|
G:--7--4--0---------------|
D:--0---------------------|
(play the open D, F#, and A as the root note on the G rings until the next note changes, 
this isn't 100% right but it fits fine and sounds better than nothing)

Angsty post-bridge part:

D:--0------*-------------|
A:--7--------------------|
F#--0--------------------|
D:--0--------------------|
G:--7--------------------|
D:--0--(x3)-4-(x8)-2-----|(x8)

*sounds cool around the "something that will make me forget" part

high D string

**--5s--7-p0---4p--0

Transition chord(s)

D:--0--0-|
A:--0--7-|
F#--0--0-|
D:--0--0-|
G:--2--7-|
D:--0--0-|

Verse
D:--0--0--9--7-|
A:--0--4--12-9-|
F#--5--5--10-8-|
D:--0--0--9--7-|
G:--0--0--9--7-|
D:--5--5--9--7-|

Chorus
D:--7--7--14-12--9--7-|
A:--9--0--0--0--12--9-|
F#--8--8--0--0--10--8-|
D:--7--9--0--0---9--7-|
G:--7--0--0--0---9--7-|
D:--7--0--0--0---9--7-| (x4)


Emotional/Philosophical break
D:------------------------|
A:--0--0--0---------------|
F#--0--0--0---------------|
D:--0--0--0---------------|
G:--7--4--0---------------|
D:--0---------------------|

End
D:--0------*-------------|
A:--7--------------------|
F#--0--------------------|
D:--0--------------------|
G:--7--------------------|
D:--0--(x3)-4-(x8)-2-----|(x8)

this might suck but i really spent so much time figuring this out and I think it might 
be okay, so please let me know what you think.


www.wearentdads.com
Добавлено: 03.02.2014
Вам также может быть интересно:
Другие материалы по этой песне:
  • Аккорды и текст

Страница создана 03.02.2014
http://primanota.ru/dads/bakefast-at-piffanys-chords.htm
Привет, Гость.
Предлагаем пройти революционный курс по гитаре.
Подарок от PrimaNota.Ru, забирай!