PrimaNota.ru - самый крупный в мире бесплатный архив песенных текстов, аккордов, табулатур и нот


Dada - Dizz Knee Land - аккорды и текст, таба, видео

Регистрация Запомнить меня
Войти через:  Facebook Google Twitter Vk Yandex Mail.ru

Dada - Dizz Knee Land - аккорды и текст, таба, видео

Печатать
Просмотров: 371
Уроки эстрадного вокала в Санкт-Петербурге
Dizz Knee Land
Dada
		   -##

Dizz Knee Land
--------------

by dada   From the album "Puzzle"

transcribed by Jeff Matson (jdm7@cornell.edu)

 okay, here is where i put a little disclaimer.  this is not really
 a complete version.  i started working on this a while ago, and i
 gave up and moved on to other things before i had finished.  after reading
 at least two and maybe three requests for this particular dada song, i
 figured i would post what i had, anyway.  if i ever get around to cleaning
 this up i'll send it in to nevada.  for now, this should be enough to get
 people started, anyway.

 --jeff

Capo first fret.

 Main Riff

 e ------------------------------------------------------------------------
 B -9/10-10-10-10-12-10-10-10-8-8-8-8-8-7-5-3--1h3-3-3-3-3-3---------------
 G -----------------------------------------------------------2h4-4-4-4-4--

 e --------
 B --------
 G -2-0-2--

 There are no real verse chords, but you can fake it with
     D         G
   557775    355433


 Bridge:

    G         F
  355433    133211

i couldn't figure out the weird bendy part with the guitar that comes after
the bridge.  it may be a G with some weird effects.


The following is TAB to the middle part of Dizz Knee Land by
dada.  There are really two guitars playing so this is adapted
for one guitar.  If anyone has any corrections please post them.


Dizz Knee Land - dada        (Middle funky part after verse 2)

                                           tabbed by Dave Singer



-3-3-3-3-3--3--3--3--3---1-1-1-1-1--1--1--1--1-------------------
-3-3-3-3-2--2--3--2--2---1-1-1-1-0--0--1--0--0-------------------
-2-2-2-2-2--2--2--2--2---0-0-0-0-0--0--0--0--0-------------------
-2-2-2-2-2--2--2--2--2---0-0-0-0-0--0--0--0--0-------------------
-----------------------------------------------------------------
-----------------------------------------------------------------

-3-3-3-3-3--3--3--3--3---1-1-1-1-1--1--1--1--1-------------------
-3-3-3-3-2--2--3--2--2---1-1-1-1-0--0--1--0--0-------------------
-2-2-2-2-2--2--2--2--2---0-0-0-0-0--0--0--0--0-------------------
-2-2-2-2-2--2--2--2--2---0-0-0-0-0--0--0--0--0-------------------
-----------------------------------------------------------------
-----------------------------------------------------------------


--0----3-3--2-2--------------------------------------------------
--1----3-3--3-3--------------------------------------------------
--2----4-4--2-2--------------------------------------------------
--3----5-5--0-0------------3--5--3--0----------------------------
--3---------------0--3--5----------------------------------------
---------------------------------------3--2----------------------


--0----3-3--2-2--------------------------------------------------
--1----3-3--3-3--------------------------------------------------
--2----4-4--2-2------------------2-------------------------------
--3----5-5--0-0------------3--5--3--------4----------------------
--3---------------0--3--5-----------0--3--5----------------------
-----------------------------------------------------------------


--0----3-3--2-2--------------------------------------------------
--1----3-3--3-3--------------------------------------------------
--2----4-4--2-2--------------------------------------------------
--3----5-5--0-0------------3--5--3--0----------------------------
--3---------------0--3--5-------------------------4--2--0--------
---------------------------------------3--2--1----5--3--2--------




Here is some dada with sme new corrections and updates
                 Dizz Knee Land / DaDa
                      From the album "Puzzle"
This song is NOT in Pitch on the record;listening to the open strings
it's in D
Alterations made to previous Dada postings:please credit original posters

Credt to Jeff Matson (jdm7@cornell.edu) Suggests to Capo first fret
Credt to Dave Singer (dmsinge@erenj.com) Song is in  D most chords are D
and G

Intro Riff 3X
--------------------------------------------------------------------------
---------------------------------------------15--15--15--15---------------
12/14--14--14--14h16--14--14--14--14--11h12--12--12--12--12--12--11--9--7-
-0--0---0---0---0--0---0---0---0---0--0--0---0---0---0---0---0---0---0--0-
--------------------------------------------------------------------------
--------------------------------------------------------------------------
                                              ^ (15) not played for  intro
-----------------------------------------------------------------
-----------------------------------------------------------------
5h7---7---7---7---7--7--7--7---2/4---4---4---4---4---4---2--0--2-
0-0---0---0---0---0--0--0--0---0-0---0---0---0---0---0---0--0--0-
-----------------------------------------------------------------
-----------------------------------------------------------------

Verse 1
D
I just ran away from home now        I'm going to Dizz Knee Land  (riff)
D
I just crashed my car again     now  I'm going to Dizz Knee Land  (riff)
D                                G
I just robbed a grocery store   now  I'm going to Dizz Knee Land  (riff)
D                                G
I just flipped off President George  I'm going to Dizz Knee Land  (riff)

Bridge 1 Chord shapes Approx strum
A7sus4   A   A7sus4  A       G7sus4 G     G7sus4  G G         2X
 d u d   d   u u    u d    . d u d  d...   u u  u.d..
-5-5-5---5---5-5----5-5------3-3-3--3------3-3--3-3-------
-5-5-5---5---5-5----5-5------3-3-3--3------3-3--3-3-------
-7-7-7---6---7-7----6-6------5-5-5--4------5-5--4-4-------
-5-5-5---7---5-5----5h7------3-3-3--5------3-3--5-5-------
-7-7-7---7---7-7----7-7------5-5-5--5------5-5--5-5-------
-5-5-5---5---5-5----5-5------3-3-3--3------3-3--3-3-------

Intro riff 1X

Verse 2
D
I just tossed a fith of gin   now  I'm going to Dizz Knee Land (riff)
D
I just got cuffed again            I'm going to Dizz Knee Land (riff)
D                              G
Shot my gun into the night    now  I'm going to Dizz Knee Land (riff)
D                              G                            oh
I just saw a good man die     now  I'm going to Dizz Knee Land (riff)
                                                            come on
Bridge 2

A7sus4   A   A7sus4  A       G7sus4 G     G7sus4  G G         2X
 d u d   d   u u    u d    . d u d  d...   u u  u.d..
-5-5-5---5---5-5----5-5------3-3-3--3------3-3--3-3-------
-5-5-5---5---5-5----5-5------3-3-3--3------3-3--3-3-------
-7-7-7---6---7-7----6-6------5-5-5--4------5-5--4-4-------
-5-5-5---7---5-5----5h7------3-3-3--5------3-3--5-5-------
-7-7-7---7---7-7----7-7------5-5-5--5------5-5--5-5-------
-5-5-5---5---5-5----5-5------3-3-3--3------3-3--3-3-------

Intro riff 1X

Then to bridge Chords F7M    G G     D
Sustain
F7M       G  G   D     Approx>
--0-------3--3---2------------------------------
--1-------0--0---3------------------------------
--2-------0--0---2-----------------0-----------
--3-------0--0---0------------0--3---3-0----------
----------2--2-----------0--3--------------------
----------3--3----------------------------3--2------
2nd
F7M       G  G   D
--0-------3--3---2---------------------------------
--1-------0--0---3---------------------------------
--2-------0--0---2-----------------0-2-------------
--3-------0--0---0------------0--3---3-0------0----
----------2--2-----------0--3------------0--3------
----------3--3-------------------------------------
3rd
F7M       G  G   D
--0-------3--3---2---------------------------------
--1-------0--0---3---------------------------------
--2-------0--0---2-----------------0---------------
--3-------0--0---0------------0--3---3-0-----------
----------2--2-----------0--3-----------------------
----------3--3----------------------------3--2--1----
4th time
F7M             D       to Verse 3
--0--------------------------------2-----
--1--------------------------------3-----
--2--------------------------------2-----
--3--------------------------------0-----
-----------------4--2-0------------------
-------------1---5--3-2------------------
Intro rif 1x

Verse 3 Quiet one

Kicked my Ass out of school
Rolled me ou tinto the street
Hitched a ride on  Monkeys Back
Headed west into the Black
                           I'm going to Dizz Knee Land
                           I'm going to Dizz Knee Land

Intro riff 2x


Lead Help (Chords D & G)! Starts off of D chord 10th position

one identifiable part goes something like:

-10-10-10-10-10-10-10-10-10-10----13-13-13-13-13-13----------
-7---7--7--7--7-7---7--7--7--7----10-10-10-10-10-10----------
------------------------------------------------------------
------------------------------------------------------------
-------------------------------------------------------------
-------------------------------------------------------------     
Добавлено: 21.10.2013
Другие материалы по этой песне:
  • Аккорды и текст

Страница создана 29.03.2012
http://primanota.ru/dada/dizz-knee-land-chords.htm
Привет, Гость.
Предлагаем пройти революционный курс по гитаре.
Подарок от PrimaNota.Ru, забирай!