PrimaNota.ru - самый крупный в мире бесплатный архив песенных текстов, аккордов, табулатур и нот


Dad - Ridin With Sue - таба, видео

Регистрация Запомнить меня
Войти через:  Facebook Google Twitter Vk Yandex Mail.ru

Dad - Ridin With Sue - таба, видео

Печатать
Просмотров: 174
Band:   Disneyland After Dark
Album:  Scare Yourself Alive
Tuning: Standard

This song is from a live album so it may not sound exactly like the original version. 
heard it about a billion times so i'm quite sure i got it right.

Riff 1:
|-----------------------------------|
|-----------------------------------|
|-----------------------------------|
|--2-2---2--2-2---2--2-2---2-3-2-0--|
|--0-0-3-0--0-0-3-0--0-0-3-0--------|
|-----------------------------------|

Riff 2
|---------------------------------|
|---------------------------------|
|---------------------------------|
|--------------------------3-2-0--|
|--0-0-3-0-0-0-3-0-0-0-3-0--------|
|---------------------------------|

Riff 3:
|-------5--3-3-3-3-------0----1--|
|-------5--3-3-3-3-------0----1--|
|--5-------0-0-0-0------------2--|
|--7-------0-0-0-0----2-------3--|
|--7-------2-2-2-2----2-------3--|
|----------3-3-3-3----0-------1--|

Riff 4:
|--------------------------|
|--------------------------|
|--2-2---2-2----2-2---2-2--|
|--2-2---2-2----2-2---2-2--|
|--0-0---0-0----0-0---0-0--|
|--------------------------|

Solo:
|---------------------------------------------------------|
|---------------------------------------------------------|
|--2------------2------------2------------2---------------|
|--2------------2------------2------------2---------------|
|--0------------0----0-3-0-3-0------------0---------------|
|-------0-3-0-3-------------------0-3-0-3------0-3-0-3-0--|

|---------------------------------------------------|
|---------------------------------------------------|
|---------------------------------------------------|
|---------------------------------------------------|
|----2---2---2---3---3---3---4---4---4---5---5---5--|
|--0---0---0---1---1---1---2---2---2---3---3---3----|

|-------------------------------------------------------|
|-------------------------------------------------------|
|-------------------------------------------------------|
|-------------------------------------------------------|
|----2---2---2-----3---3---3-----4---4---4---3---3---3--|
|--0---0---0---0\1---1---1---1\2---2---2---1---1---1----|

|-----------------------------|
|-----------------------------|
|-----------------------------|
|-----------------------------| x2
|--0-3p0-0-3p0--0h3p0--0-3p0--|
|-----------------------------|

Whole song:
Riff 1 x2
Riff 2 x8
Riff 3
Riff 1 x3
Riff 4
Riff 1 x2
Riff 2 x8
Riff 3
Riff 1 x3
Riff 4
Solo
Riff 2 (Palm muted)x14
Riff 3
Riff 1
Riff 3
Riff 4

|-----------------------------------|

   Pett06
Добавлено: 07.06.2012
Другие материалы по этой песне:
  • Аккорды и текст

Страница создана 07.06.2012
http://primanota.ru/dad/ridin-with-sue-chords.htm
Привет, Гость.
Предлагаем пройти революционный курс по гитаре.
Подарок от PrimaNota.Ru, забирай!