PrimaNota.ru - самый крупный в мире бесплатный архив песенных текстов, аккордов, табулатур и нот


Dad - Jihad - таба, видео

Регистрация Запомнить меня
Войти через:  Facebook Google Twitter Vk Yandex Mail.ru

Dad - Jihad - таба, видео

Печатать
Просмотров: 168
D-A-D - Jihad
from "No Fuel Left For The Pilgrims" (1989)

Intro:

|--------------------------------------|
|--------------------------------------|
|-----------------2------------2-------|
|-----------2-2-2-0----2-2-2-2-0-------|
|-5-6-7-----0h3-3------0-0-3-3---------|
|-3-4-5--------------------------------|

e|------------------------| *3
b|------------------------|
g|-------2---2------------|
d|-2-2-2-0---0-2-2-2------|
a|-0h3-3-------0-0-0-2----|
e|-------------------3----|

Verse:

|--------------|
|-8-8---10-10--|
|-7-7---9--9---|
|--------------|
|--------------|
|--------------|

Bass:

|A|A|G-F#|C|D|

Prechorus:

|--------------|
|--------------|
|--------------| *3
|-------2------|
|-2-2-2-0------|
|-0-3-3--------|

Bass:

E-G-A

Chorus:

|----------------------|
|----------------------|
|------------2---------|
|-2-2-2-2----0-2-2-----|
|-0-0-0-0...---0-0-2---|
|------------------3---|

2nd verse:

|--------------|
|-8-8---10-10--|
|-7-7---9--9---|
|--------------|
|--------------|
|--------------|

Bass:

|A|A|G-F#|C|D|

Prechorus:

|--------------|
|--------------|
|--------------| *3
|-------2------|
|-2-2-2-0------|
|-0-3-3--------|

Bass:

E-G-A

Chorus:

|----------------------|
|----------------------|
|------------2---------|
|-2-2-2-2----0-2-2-----|
|-0-0-0-0...---0-0-2---|
|------------------3---|

Bass:

|A|A|A|D-A-G|

Before solo("This is tower again do you...)

|----------------|
|----------------|
|----------------|
|-22222-------2--|
|-0000000000000--|
|----------------|

Solo:

|------------------------|------------------12-------|
|------------<>5------5--|--L-------------------15b--|
|--7b--------------------|--------------12-----------|
|------------------------|---------------------------|
|------------------------|---------------------------|
|------------------------|---------------------------|

|-------15------------------|------------------12------|
|--L--------15pbr--L--------|--L-----------------------|
|---------------------------|--------------12------12--|
|---------------------------|--------------------------|
|---------------------------|--------------------------|
|---------------------------|--------------------------|

|-----------------------------------|---------------------------------|
|--14------15------14----------14b--|--L-14-12--14--------------------|
|------12------12------12--12-------|---------------12-------------9--|
|-----------------------------------|-------------------14--14--------|
|-----------------------------------|---------------------------------|
|-----------------------------------|---------------------------------|

|---------------------------------------------|--------------------|
|---------------------------------------------|--------------------|
|--11pbr----9---------------------------------|--------------------|
|--------------11pbr----9---------------------|--------------------|
|--------------------------12--10br----L------|--------------------|
|-----------------------------------------12--|--12----------------|

|--------------------------------|----------------------------|
|-------10--10----10--------12b--|--L--10--10----10-----------|
|--12b------------------12-------|-----------------------16b--|
|--------------------------------|----------------------------|
|--------------------------------|----------------------------|
|--------------------------------|----------------------------|

|---------15--------------------|-------15---------------------|
|-----14------14--------14------|------------------------------|
|--L--------------14--------14--|--17b------17b--17b--L--------|
|-------------------------------|------------------------------|
|-------------------------------|------------------------------|
|-------------------------------|------------------------------|

|--12--12--12--14--14--14--15--15--|--15--15--15--15--15b--------|
|--13--13--13--15--15--15--17--17--|--17--17--17--17-------------|
|----------------------------------|-----------------------------|
|----------------------------------|-----------------------------|
|----------------------------------|-----------------------------|
|----------------------------------|-----------------------------|

|--L--------L----------|--------------------------|---------------------|
|----------------------|--------------------------|---------------------|
|------------------5b--|--L-----------------------|---------------------|
|----------------------|-----7--5-----------------|---------------------|
|----------------------|-----------7--6--5--------|--2------------------|
|----------------------|--------------------8--5--|--0------------------|
Добавлено: 02.03.2012
Другие материалы по этой песне:
  • Аккорды и текст

Страница создана 02.03.2012
http://primanota.ru/dad/jihad-chords.htm
Привет, Гость.
Предлагаем пройти революционный курс по гитаре.
Подарок от PrimaNota.Ru, забирай!