PrimaNota.ru - самый крупный в мире бесплатный архив песенных текстов, аккордов, табулатур и нот


Dad Rocks - Nothing Keeps Up - таба, видео

Регистрация Запомнить меня
Войти через:  Facebook Google Twitter Vk Yandex Mail.ru

Dad Rocks - Nothing Keeps Up - таба, видео

Печатать
Просмотров: 191
‘Nothing Keeps Up'
by Dad Rocks!
Digital Age EP
http://dadrocks.bandcamp.com/
http://www.youtube.com/watch?v=y8rff5jLH_M

Tuning:
D
A
F#
D
A
D

Intro/Verse:

|----------|
|-------12-|
|---0------|    x4
|-----0----|
|----------|
|-0--------|

|-----------|
|--------12-|
|----0------|   x4
|------0----|
|-10--------|
|-----------|

|----------|
|-------10-|
|---0------|    x2
|-----0----|
|----------|
|-8--------|

|----------|
|-------9--|
|---0------|    x2
|-----0----|
|----------|
|-9--------|

|----------|
|-------5--|
|---0------|    x2
|-----0----|
|----------|
|-5--------|

|-------------------------------|
|-------5----------5-(slide up)-|
|---0---------0-----------------|     X1
|-----0---------0---------------|
|-------------------------------|
|-4---------7-------------------|


Chorus:

|------------------------------------|
|------------------------------------|
|---------5p0--------------3h0-------|
|-----0---------0------0---------0---|
|------------------------------------|
|-0h5---5-----5----0h4---4-----4-----|

|------------------------------------|
|--------------0----------------0----|
|------0---------------0-------------|
|------------------------------------|
|------------------------------------|
|-0h12---/4p0-----0h12----/4p0-------|

|--------0----------0----------0----------0---|
|--------0----------0----------0----------0---|
|--------0----------0----------0----------0---|
|--------0----------0----------0----------0---|
|--------0----------0----------0----------0---|
|-0h2h4--0---0h2h4--0--0h2h4h--0--0h2h4h--0---|


Repeat Verse-
Outro/Chorus:

|---------------------------|
|---------------------------|
|-----0-------5h0-----------|
|-----------0-----0----0----|
|---------0-----------------|
|-0h5---5-----------0h5-----|

|---------------------------|
|---------------------------|
|-----0-------3h0-----------|
|-----------0-----0-----0---|
|---------0-----------------|
|-0h4---4-----------0h4-----|

|------------------------------------|
|--------------0----------------0----|
|------0---------------0-------------|
|------------------------------------|
|------------------------------------|
|-0h12---/4p0-----0h12----/4p0-------|

|--------0----------0----------0----------0---|
|--------0----------0----------0----------0---|
|--------0----------0----------0----------0---|
|--------0----------0----------0----------0---|
|--------0----------0----------0----------0---|
|-0h2h4--0---0h2h4--0--0h2h4h--0--0h2h4h--0---|
Добавлено: 13.06.2012
Другие материалы по этой песне:
  • Аккорды и текст

Страница создана 13.06.2012
http://primanota.ru/dad-rocks/nothing-keeps-up-chords.htm
Привет, Гость.
Предлагаем пройти революционный курс по гитаре.
Подарок от PrimaNota.Ru, забирай!