PrimaNota.ru - самый крупный в мире бесплатный архив песенных текстов, аккордов, табулатур и нот


Daath - Blender For The Baby - таба, видео

Регистрация Запомнить меня
Войти через:  Facebook Google Twitter Vk Yandex Mail.ru

Daath - Blender For The Baby - таба, видео

Печатать
Просмотров: 228
Daath - Blender For The Baby

Tabbed by: Logan

Tuning (C-G-C-F-A-D)

0:00 - 0:14

D|-----------------------|
A|-----------------------|
F|-----------------------|
C|-0-2-3-0-8-0-7-0-1-0-7-|
G|-0-2-3-0-8-0-7-0-1-0-5-|
C|-0-2-3-0-8-0-7-0-1-0---|
         .   .   .   .

0:14 - 0:34

D|------------------------|
A|------------------------|
F|------------------------|
C|-8-7-0-0-1-0--8-7-0-1-0-|
G|-8-7-0-0-1-0--8-7-0-1-0-|
C|-8-7-0-0-1-0--8-7-0-1-0-|
       . .          .


0:34 - 1:13

D|-------------------------|
A|-------------------------|
F|----------6--------------|
C|-0--------x----5----1--0-|
G|-0--------4----5----1--0-|
C|-0-------------5----1--0-|


 repeat first 2 riffs, then at 1:52 play:

D|-------------------------------------|
A|-------------------------------------|
F|----------------------8----7-8-9--10-|
C|-1----1-1-1-0----0----x----x-x-x---x-|
G|-1----1-1-1-0----0----6----5-6-7---8-|
C|-1----1-1-1-0----0-------------------|

2:03 - 2:13

D|-----------------------------------------|---------------------------------|
A|-----------------------------------------|---------------------------------|
F|-----------------------------------------|------------8~10------------8~10-|
C|-0-0---0-0-0-0---0-0-0-0---0-0-0-0---0-0-|0-0-0-0-0-0-x~x-0-0-0-0-0-0-x~x--|
G|-0-0---0-0-0-0---0-0-0-0---0-0-0-0---0-0-|0-0-0-0-0-0-6~8-0-0-0-0-0-0-6~8--|
C|-0-0---0-0-0-0---0-0-0-0---0-0-0-0---0-0-|0-0-0-0-0-0-----0-0-0-0-0-0------|
   . .   . . . .   . . . .   . . . .   . . |. . . . . .     . . . . . .
                                                       this measure x3

2:15 - 2:27

D|--
A|--
F|--
C|-0
G|-0
C|-0  X29  (lol)
   .


2:29 - 2:47 (very fast)

D|---------------------------------------|
A|---------------------------------------|
F|---------------------------------------|
C|-0-0-0-0-0--0-0-0-0--0-0-0-0-0-0-0-0-0-|
G|-0-0-0-0-0--0-0-0-0--0-0-0-0-0-0-0-0-0-|
C|-0-0-0-0-0--0-0-0-0--0-0-0-0-0-0-0-0-0-|
   . . . . .  . . . .  . . . . . . . . .

2:47 - 2:50
D|------------------|
A|------------------|
F|-------------8~10-|
C|-0-0-0-0-0-0-x~x--|
G|-0-0-0-0-0-0-6~8--|
C|-0-0-0-0-0-0------|
   . . . . . .     X2


2:50 - 3:29

D|---------------------------------------|
A|---------------------------------------|
F|---------------------------------------|
C|-0-0-0-0-0--0-0-0-0--0-0-0-0-0-0-0-0-0-|
G|-0-0-0-0-0--0-0-0-0--0-0-0-0-0-0-0-0-0-|
C|-0-0-0-0-0--0-0-0-0--0-0-0-0-0-0-0-0-0-|
   . . . . .  . . . .  . . . . . . . . .

3:29 - 3:43

D|------------------------------------|
A|------------------------------------|
F|------------------------------------|
C|-8-7-0-0-1-0--0-0-0--8-7-0-1-0--0-0-|
G|------------------------------------|
C|------------------------------------|
       . .      . . .      .      . .

3:43 - 4:19

D|------------------------------------|
A|------------------------------------|
F|------------------------------------|
C|-8-7-0-0-1-0--0-0-0--8-7-0-1-0--0-0-|
G|-8-7-0-0-1-0--0-0-0--8-7-0-1-0--0-0-|
C|-8-7-0-0-1-0--0-0-0--8-7-0-1-0--0-0-|
       . .      . . .      .      . .

there is a pause on the riff at 3:56

your done man :)
Добавлено: 07.05.2012
Другие материалы по этой песне:
  • Аккорды и текст

Страница создана 07.05.2012
http://primanota.ru/daath/blender-for-the-baby-chords.htm
Привет, Гость.
Предлагаем пройти революционный курс по гитаре.
Подарок от PrimaNota.Ru, забирай!