PrimaNota.ru - самый крупный в мире бесплатный архив песенных текстов, аккордов, табулатур и нот


D4 - Heartbreaker - текст песни, таба, видео

Регистрация Запомнить меня
Войти через:  Facebook Google Twitter Vk Yandex Mail.ru

D4 - Heartbreaker - текст песни, таба, видео

Печатать
Просмотров: 261
Авторы музыки: Dion Palmer
Авторы текста: Jimmy Christmas
Title: Heartbreaker
Album: The D4 (debut album)
Notes: I havent tabbed out the solo yet, if I can get it I'll update. Enjoy.

 

 
              Standard Tuning
Gtr I (E A D G B E) - Gtr II (E A D G B E) 


 
 Intro/Verse (Gtr II)
 This starts with the bass playing, then Gtr II comes in. 
 
|--------------------------------------------------------------------|
|--------------------------------------------------------------------|
|--------------------------------------------------------------------|
|--------------------------------------------------------------------|
|-------------------------------------------------5-5-5-5-5-5-5-5----|
|-5-5-5-5-5-5-5-5-8-8-8-8-8-8-8-8-1-1-1-1-1-1-1-1--------------------|


 Intro Verse (Gtr I)   
|---------------------------------------------|
|---------------------------------------------|
|------------------------------------12-14----|
|--------------------10--------------12-14----|
|-10---12-12---10-12------12-10-12---10v12^---|
|---------------------------------------------|
 v= slide ^=bend

  Pre-Chorus  (Gtr I)
|-----------------------------------------------|
|-----------------------------------------------|
|--------------------------------------12-14----|
|------------------------10------------12-14----|
|-5v12--10--12-12--10-12-----12-10-12--10-12----|
|-----------------------------------------------|


  Pre-Chorus  (Gtr II)
|-----------------|
|-----------------|
|-----------------|
|-7--10--3--12----|
|-7--10--3--12----|
|-5---8--1--10----|


  Chorus (Gtr I & II)
|------------------------------------------------------------------------|
|------------------------------------------------------------------------|
|------------------------------------------------------------------------|
|-7--7--7-7-7-7--10--10--10-10-10-10--3--3--3-3-3-3--12--12--12-12-12-12-|
|-7--7--7-7-7-7--10--10--10-10-10-10--3--3--3-3-3-3--12--12--12-12-12-12-|
|-5--5--5-5-5-0---8---8---8--8--8--0--1--1--1-1-1-0--10--10--10-10-10--0-|


--------------------------------------------------------------------------------
Добавлено: 19.04.2012
Другие материалы по этой песне:
  • Аккорды и текст

Страница создана 22.02.2012
http://primanota.ru/d4/heartbreaker-chords.htm
Привет, Гость.
Предлагаем пройти революционный курс по гитаре.
Подарок от PrimaNota.Ru, забирай!