PrimaNota.ru - самый крупный в мире бесплатный архив песенных текстов, аккордов, табулатур и нот


D At Sea - Unconscious - таба, видео

Регистрация Запомнить меня
Войти через:  Facebook Google Twitter Vk Yandex Mail.ru

D At Sea - Unconscious - таба, видео

Печатать
Просмотров: 385
This Is My First Tab So Excuse Me If There Are Mistakes c:

Tuning: Standard

Intro verse:
when did the world turn cold...
----------------------------------------­--------------------------|
----------------------------------------­--------------------------|
---------------------------------1------­--------3-----------------|
-----4----4------4----4--------------4--­-----------4--------------|         Reapeat
--2----2---------------------4----4-----­---6----6-----------------|
---------------2-----2------------------­--------------------------|

Bridge:
Hell is empty, all the devils....
----------------------------------------­--------------------|
----------------------------------------­--------------------|
--4---------6----8----6----------------­---------------------|
--4----4----6----8----6------then repeat---------------------|
--2----4----4----6----4-----------------­--------------------|
-------2-------------------------------­---------------------|

Chorus:
Sometimes we think....
----------------------------------------­--------------------|
----------------------------------------­--------------------|
--------6-----8-----4----------------­-----------------------|
--4-----4------8------4-----------------­--------------------|
--4-----4------6------2-----------------­--------------------|
--2-------------------------------------­--------------------|

2nd Verse:
No we won't sell our souls...
----------------------------------------­--------------------|
----------------------------------------­--------------------|
---------------------------------1------­--------3-----------|
-----4----4------4----4--------------4--­-----------4--------|
--2----2---------------------4----4-----­---6----6-----------|
---------------2-----2------------------­--------------------|

Instrumental bit:
----------------------------------------­----------|
----------------------------------------­----------|
-----------3-------------------3--------­----------|
-----4-------4-(x2)----2--------2-(x2)--­----------|
--2----2--------------------------------­----------|
---------------------2-----2------------­----------|

----------------------------------------­-----------|
----------------------------------------­-----------|
-------3--------------------------------­-----------|
---4------4-(x2)--------------3----4--3-­-----------|
6----6---------------------4----4-------­-4---------|
----------------------------------------­-----------|

The strumming part that goes on during the solo part:
----------------------------------------­--------------------|
----------------------------------------­--------------------|
---4------------8-----6----------------­---------------------|
---4-----4------8-----6-----------------­--------------------|
---2-----4------6-----4-----------------­--------------------|
---------2-----------------------------­---------------------|

For the solo part it's just 6-4-1-2---9-| on the high e string
--6-4-1-2---9---------------------------| (Repeat As Necessary)
----------------------------------------|
----------------------------------------|
----------------------------------------|
----------------------------------------|

I won't let my heart turn cold...
----------------------------------------­--------------------|
----------------------------------------­--------------------|
---------3--------3---------------------­--------------------|
------4--------4-----------4----4-------­--------------------|
---2--------------------4----4----------­--------------------|
-------------2--------------------------­--------------------|


Chorus:
Sometimes we think....
----------------------------------------­--------------------|
----------------------------------------­--------------------|
--------6------8------4----------------­---------------------|
--4-----4------8------4-----------------­--------------------|
--4-----4------6------2-----------------­--------------------|
--2-------------------------------------­--------------------|
Добавлено: 12.07.2013
Другие материалы по этой песне:

Страница создана 25.06.2013
http://primanota.ru/d-at-sea/unconscious-chords.htm
Привет, Гость.
Предлагаем пройти революционный курс по гитаре.
Подарок от PrimaNota.Ru, забирай!