PrimaNota.ru - самый крупный в мире бесплатный архив песенных текстов, аккордов, табулатур и нот


D At Sea - Drown - таба, видео

Регистрация Запомнить меня
Войти через:  Facebook Google Twitter Vk Yandex Mail.ru

D At Sea - Drown - таба, видео

Печатать
Просмотров: 119
Уроки эстрадного вокала в Санкт-Петербурге
Song: Drown (Bring Me The Horizon Cover) by Millie Tizzard and D at Sea.
Capo: 3rd fret
Tuning: EADGBE
Video for refernce: https://www.youtube.com/watch?v=FAEyG1Ccr1g

Filed this tab under D at Sea, but the video is really on Millie Tizzard's channel.
You can find their channels at:
https://www.youtube.com/channel/UCOaLrAXOaaUwoowgvwU6Xyw (Millie Tizzard)
https://www.youtube.com/user/lemonsmashle ( D at Sea)


This tab is in relative to the capo on the 3rd fret

Intro lead bit that Doyle plays:

E|--------------|-----------------------|--|
B|--8--6--5--3--|--1--6h8--10--5--3--1--|--|
G|--------------|-----------------------|--|
D|--------------|-----------------------|--|
A|--------------|-----------------------|--|
E|--------------|-----------------------|--|

Second guitar played along with the lead bit:

E|-----------0-----------0-----------0--|
B|-----------1-----------1-----------0--|
G|--------2-----------2-----------------|
D|-----3-----------2--------------2-----|
A|--3-----------0--------------2--------|
E|--------------------------0-----------|

Chords strummed throughout the whole song.

   F     Am     Em
E|-----|-----|-----|
B|--1--|--1--|-----|
G|--2--|--2--|--0--|
D|--3--|--2--|--2--|
A|--3--|-----|--2--|
E|-----|-----|--0--|
Добавлено: 18.05.2016
Другие материалы по этой песне:
  • Аккорды и текст

Страница создана 18.05.2016
http://primanota.ru/d-at-sea/drown-chords.htm
Привет, Гость.
Предлагаем пройти революционный курс по гитаре.
Подарок от PrimaNota.Ru, забирай!