PrimaNota.ru - самый крупный в мире бесплатный архив песенных текстов, аккордов, табулатур и нот


Cyrkle - The Words - бас-таба, видео

Регистрация Запомнить меня
Войти через:  Facebook Google Twitter Vk Yandex Mail.ru

Cyrkle - The Words - бас-таба, видео

Печатать
Просмотров: 57
Tabbed by: 6METAL6BASSIST6
E-mail: petergriffinav@gmail.com

Tuning: 1/4th step up

0:08

G|7---------------6-----------------------------------------------|
D|--------------------------------9---------------7---------------| x2
A|----------------------------------------------------------------|
E|----------------------------------------------------------------|

G|----------------------------------------------------------------|
D|7-----------7-----------5---6---7-----------7-----------5---6---| x4
A|----------------7---7---------------------------7---7-----------|
E|----------------------------------------------------------------|

0:31

G|----------------------------------------------------------------|
D|7-----------7-----------------------------------7---------------|
A|----------------7-----------7---5-----------5---------------7---|
E|----------------------------------------------------------------|

G|----------------------------------------------------------------|
D|7-----------7-------------------7-----------7---7---------------|
A|----------------5-----------5-------------------------------7---|
E|----------------------------------------------------------------|

G|----------------------------------------------------------------|
D|7-----------7-----------------------------------7---------------|
A|----------------7-----------7---5-----------5---------------7---|
E|----------------------------------------------------------------|

G|----------------------------------------------------------------|
D|7-----------7-------------------7-----------7---7---6---7---8---|
A|----------------5-----------5-----------------------------------|
E|----------------------------------------------------------------|

0:46

G|----------------------------------------------------------------|
D|9-----------9-------------------9-----------9-----------9-------|
A|----------------9---9-------9-------------------9-----------9---|
E|----------------------------------------------------------------|

G|----------------------------------------7-----------------------|
D|----------------7---7---------------7-----------7---------------|
A|5-----------5---------------5---------------------------5-------|
E|----------------------------------------------------------------|

G|----------------------------------------------------------------|
D|9-----------9-------------------9-----------9-----------9-------|
A|----------------9---9-------9-------------------9-----------9---|
E|----------------------------------------------------------------|

G|----------------------------------------9-----------------------|
D|----------------9---9---------------7-----------9---------------|
A|7-----------7---------------7---------------------------7-------|
E|----------------------------------------------------------------|

1:03

G|----------------------------------------------------------------|
D|7-----------7-----------------------------------7---------------|
A|----------------7-----------7---5-----------5---------------7---|
E|----------------------------------------------------------------|

G|----------------------------------------------------------------|
D|7-----------7-------------------7-----------7---7---------------|
A|----------------5-----------5-------------------------------7---|
E|----------------------------------------------------------------|

G|----------------------------------------------------------------|
D|7-----------7-----------------------------------7---------------|
A|----------------7-----------7---5-----------5---------------7---|
E|----------------------------------------------------------------|

G|----------------------------------------------------------------|
D|7-----------7-------------------7-----------7---7---6---7---8---|
A|----------------5-----------5-----------------------------------|
E|----------------------------------------------------------------|

1:19

G|----------------------------------------------------------------|
D|9-----------9-------------------9-----------9-----------9-------|
A|----------------9---9-------9-------------------9-----------9---|
E|----------------------------------------------------------------|

G|----------------------------------------7-----------------------|
D|----------------7---7---------------7-----------7---------------|
A|5-----------5---------------5---------------------------5-------|
E|----------------------------------------------------------------|

G|----------------------------------------------------------------|
D|9-----------9-------------------9-----------9-----------9-------|
A|----------------9---9-------9-------------------9-----------9---|
E|----------------------------------------------------------------|

G|------------------------------/-9-------9-----/-9-------9-------|
D|----------------9---9-------------------------------------------|
A|7-----------7---------------------------------------------------|
E|----------------------------------------------------------------|

1:34

G|7---------------6-----------------------------------------------|
D|--------------------------------9---------------7-----------7---|
A|----------------------------------------------------------------|
E|----------------------------------------------------------------|

G|7-----------7---6-----------6-----------------------------------|
D|--------------------------------9-----------9---7---------------|
A|------------------------------------------------------------7---|
E|----------------------------------------------------------------|

1:41

G|----------------------------------------------------------------|
D|7-----------7-----------5---6---7-----------7-----------5---6---| x4
A|----------------7---7---------------------------7---7-----------|
E|----------------------------------------------------------------|

G|----------------------------------------------------------------|
D|7-----------7---7-----------7---7-----------7---7-----------7---| x2
A|----------------------------------------------------------------|
E|----------------------------------------------------------------|

G|--------------------------------|
D|7-----------7---7-----------7---|
A|--------------------------------|
E|--------------------------------|

2:06

G|7---------------6-----------------------------------------------|
D|--------------------------------9---------------7-----------7---|
A|----------------------------------------------------------------|
E|----------------------------------------------------------------|

G|7-----------7---6-----------6-----------------------------------|
D|--------------------------------9-----------9---7---------------|
A|------------------------------------------------------------7---|
E|----------------------------------------------------------------|

2:14

G|----------------------------------------------------------------|
D|7-----------7-----------------------------------7---------------|
A|----------------7-----------7---5-----------5---------------7---|
E|----------------------------------------------------------------|

G|----------------------------------------------------------------|
D|7-----------7-------------------7-----------7---7---------------|
A|----------------5-----------5-------------------------------7---|
E|----------------------------------------------------------------|

G|----------------------------------------------------------------|
D|7-----------7-----------------------------------7---------------|
A|----------------7-----------7---5-----------5---------------7---|
E|----------------------------------------------------------------|

G|----------------------------------------------------------------|
D|7-----------7-------------------7-----------7---7---6---7---8---|
A|----------------5-----------5-----------------------------------|
E|----------------------------------------------------------------|

2:30

G|----------------------------------------------------------------|
D|9-----------9-------------------9-----------9-----------9-------|
A|----------------9---9-------9-------------------9-----------9---|
E|----------------------------------------------------------------|

G|----------------------------------------7-----------------------|
D|----------------7---7---------------7-----------7---------------|
A|5-----------5---------------5---------------------------5-------|
E|----------------------------------------------------------------|

G|----------------------------------------------------------------|
D|9-----------9-------------------9-----------9-----------9-------|
A|----------------9---9-------9-------------------9-----------9---|
E|----------------------------------------------------------------|

G|------------------------------/-9-------9-----/-9-------9-------|
D|----------------9---9-------------------------------------------|
A|7-----------7---------------------------------------------------|
E|----------------------------------------------------------------|

2:47

G|7---------------6-----------------------------------------------|
D|--------------------------------9---------------7-----------7---|
A|----------------------------------------------------------------|
E|----------------------------------------------------------------|

G|7-----------7---6-----------6-----------------------------------|
D|--------------------------------9-----------9---7---------------|
A|------------------------------------------------------------7---|
E|----------------------------------------------------------------|

G|----------------------------------------------------------------|
D|7-----------7-----------5---6---7-----------7-----------5---6---|
A|----------------7---7---------------------------7---7-----------|
E|----------------------------------------------------------------|

G|----------------------------------------------------------------|
D|7-----------7-----------5---6---7-----------7---7-----------7---|
A|----------------7---7-------------------------------------------|
E|----------------------------------------------------------------|

G|----------------------------------------------------------------|
D|7-----------7---7-----------7---7-----------7---7-----------7---| x2
A|----------------------------------------------------------------|
E|----------------------------------------------------------------|

G|----------------------------------------------------------------|
D|7-----------7---7-----------7---7-------------------------------|
A|----------------------------------------------------------------|
E|----------------------------------------------------------------|
Добавлено: 12.05.2016
Другие материалы по этой песне:
  • Аккорды и текст

Страница создана 12.05.2016
http://primanota.ru/cyrkle/words-chords.htm
Привет, Гость.
Предлагаем пройти революционный курс по гитаре.
Подарок от PrimaNota.Ru, забирай!