PrimaNota.ru - самый крупный в мире бесплатный архив песенных текстов, аккордов, табулатур и нот


Cypress Hill - Illusions - текст песни, таба, бас-таба, видео

Регистрация Запомнить меня
Войти через:  Facebook Google Twitter Vk Yandex Mail.ru

Cypress Hill - Illusions - текст песни, таба, бас-таба, видео

Печатать
Просмотров: 234
Guitar 1
e -------------------------------------|
B -------------------------------------|
G -------------------------------------|
D --3---3---3---3-----5-4--5-2--5-4--5-|
A ----7---5---7---7--------------------|
E -------------------------------------|

Guitar 2
e -----5------6-5------6-5-----------|
B -----------------------------------|
G --7----7-6------7/6------6/7-------|
D -----------------------------------|
A -----------------------------------|
E -----------------------------------|
Добавлено: 04.04.2012
Другие материалы по этой песне:
  • Аккорды и текст

Страница создана 04.04.2012
http://primanota.ru/cypress-hill/illusions-chords.htm
Привет, Гость.
Предлагаем пройти революционный курс по гитаре.
Подарок от PrimaNota.Ru, забирай!