PrimaNota.ru - самый крупный в мире бесплатный архив песенных текстов, аккордов, табулатур и нот


Cypress Hill - Cock The Hammer - аккорды и текст, бас-таба, видео

Регистрация Запомнить меня
Войти через:  Facebook Google Twitter Vk Yandex Mail.ru

Cypress Hill - Cock The Hammer - аккорды и текст, бас-таба, видео

Печатать
Просмотров: 134
Уроки эстрадного вокала в Санкт-Петербурге
Авторы: Senen Reyes, Louis Freese, Larry Muggerud

Cock The Hammer
Cypress Hill
Cock the Hammer - Cypress Hill
 
By: Jon Craven (i_apathy@hotmail.com)
For questions, comments, feedback, an outline of the timing, write the above
address.

Note:
  -This song sounds as if it was played on a stand up bass.

(4/4)(99 bpm)
Tuned two and a half steps down (low to high: B E A D)

 - note held for an eighth beat
|-R-| - rest for one measure

Intro pt.1: (0:09)
|----------------|----------------|----------------|----------------|
|--------6-5-----|------6-5-@----|------6-5-@----|------6-5-@----|
|8-5-7-8-------88|--5-7---------88|--5-7---------88|--5-7---------88|
|----------------|0---------------|0---------------|0---------------|

Intro pt.2 (verse 1/chorus/outro): (x4)(0:19)
|----------------|
|------6-5-@----|
|--5-7---------88|
|0---------------|

Verse 1 (x16)
Chorus (x8)

Verse 2: (1:27)
|----------------|----------------|----------------|----------------|
|------6-5-@----|------6-5-@----|------6-5-@----|------6-5-@----|
|--5-7---------88|--5-7---------88|--5-7---------88|--5-7---------88|
|0---------------|0---------------|0---------------|0---------------|

|----------------|----------------|---|---|----------------|----------------|
|------6-5-@----|------6-5-@----|---|---|------6-5-@----|------6-5-@----|
|--5-7---------88|--5-7---------88|-R-|-R-|--5-7---------88|--5-7---------88|
|0---------------|0---------------|---|---|0---------------|0---------------|

|----------------|----------------|----------------|----------------|
|------6-5-@----|------6-5-@----|------6-5-@----|------6-5-@----|
|--5-7---------88|--5-7---------88|--5-7---------88|--5-7---------88|
|0---------------|0---------------|0---------------|0---------------|

|----------------|----------------|----------------|----------------|
|------6-5-@----|------6-5-@----|------6-5-@----|------6-5-@----|
|--5-7---------88|--5-7---------88|--5-7---------88|--5-7---------88|
|0---------------|0---------------|0---------------|0---------------|

|----------------|----------------|----------------|----------------|
|------6-5-@----|------6-5-@----|------6-5-@----|------6-5-@----|
|--5-7---------88|--5-7---------88|--5-7---------88|--5-7---------88|
|0---------------|0---------------|0---------------|0---------------|

Chorus (x8)
Outro (x26)(fades on 22nd repeat)
Rest till end
Добавлено: 11.01.2014
Другие материалы по этой песне:
  • Аккорды и текст

Страница создана 29.03.2012
http://primanota.ru/cypress-hill/cock-the-hammer-chords.htm
Привет, Гость.
Предлагаем пройти революционный курс по гитаре.
Подарок от PrimaNota.Ru, забирай!