PrimaNota.ru - самый крупный в мире бесплатный архив песенных текстов, аккордов, табулатур и нот


Cypress Hill - Catastrophe - текст песни, бас-таба, видео

Регистрация Запомнить меня
Войти через:  Facebook Google Twitter Vk Yandex Mail.ru

Cypress Hill - Catastrophe - текст песни, бас-таба, видео

Печатать
Просмотров: 99
-------------------------------------------------------------------------------
                             Catastrophe - Cypress Hill
-------------------------------------------------------------------------------
Tabbed by: stancranford
E-mail: simonhawkinsuk@gmail.com

Tuning: EADG

Main Riff

G|---------------------|
D|---------------------|
A|---------------------|
E|-6-0-5-0-3-0-2-0-0-0-|

Bridge 1

G|---------------------------------------------------------------------------|
D|---------------------------------------------------------------------------|
A|----------------------------------5----3----6--8---------------------------|
E|-6-0-5-0-3-0-2-0-3-0-5-0-3-0-2-0-------------------------------------------|

Chorus

G|----------------------------------------|
D|----------------------------------------|
A|----------------3------------------3-2--|
E|-0-0-2---0-0-2------0-0-2---0-0-2-------|

Breakdown
                                  x4
G|---------------------------------|-----------------------------------|
D|---------------------------------|-----------------------------------|
A|---------------------------------|-----------------------------5-----|
E|-6-0-5-0-3-0-2-0-5-0-3-0-2-0-0-0-|-6-0-5-0-3-0-2-0-5-0-3-0-2-0-------|

G|---------------------------------------------------------------------|
D|---------------------------------------------------------------------|
A|-----------------------------4-------------------------------3-------|
E|-6-0-5-0-3-0-2-0-5-0-3-0-2-0-----6-0-5-0-3-0-2-0-5-0-3-0-2-0---------|

G|--------------------------|
D|--------------------------|
A|--------------------------|
E|-6-0-5-0-3-0-2-0-0--3/6\--|

Bridge 2

G|-------------------------------------------------------------------|
D|-------------------------------------------------------------------|
A|----------------------------------5--5-3--3-6--8-5--5-8--8-6--6-5--|
E|-6-0-5-0-3-0-2-0-3-0-5-0-3-0-2-0-----------------------------------|

G|--------------------------------|
D|--------------------------------|
A|-5-3--3-6--8-5-5-5-5-5-5-5-5-3--|
E|--------------------------------|

End Chorus

G|-------------------------------------|
D|-------------------------------------|
A|----------------3------------------3-|
E|-0-0-2---0-0-2------0-0-2---0-0-2----|

Order:
Main Riff x 13 
Bridge 1 x 1
Chorus x 2
Main Riff x 13
Bridge 1 x 1
Chorus x 2
Breakdown x 1
Main Riff x 12
Bridge 2 x 1
Chorus x 1
End Chorus x 1




| /  slide up
| \  slide down
| h  hammer-on
| p  pull-off
| ~  vibrato
| +  harmonic
| x  Mute note
===============================================================================
Добавлено: 13.12.2015
Другие материалы по этой песне:

Страница создана 12.04.2012
http://primanota.ru/cypress-hill/catastrophe-chords.htm
Привет, Гость.
Предлагаем пройти революционный курс по гитаре.
Подарок от PrimaNota.Ru, забирай!