PrimaNota.ru - самый крупный в мире бесплатный архив песенных текстов, аккордов, табулатур и нот


Cynic - The Unknown Guest - таба, видео

Регистрация Запомнить меня
Войти через:  Facebook Google Twitter Vk Yandex Mail.ru

Cynic - The Unknown Guest - таба, видео

Печатать
Просмотров: 137
This song, and everything else on Traced In Air, is amazing, so i thought I'd do as much 
I could be bothered doing
for anybody else out there who likes this riff as much as I do.
Enjoy, and would somebody out there please tab the rest of the song for me.

E|----------------------------------|--------------------------------|
B|----------------------------------|--------------------------------|
G|-------11-7---------6-------------|--------------------------------|
D|-----9------9-6-------7---7/4-----|------7-6---------6-5-----------|
A|7-11------------7-9-----9-----5-4-|5-4-5-----8-4-3-4-----7-3-2-----|
E|----------------------------------|--------------------------------|
pm. .  .        . . .     .     . .  . . .     . . . .     . . .
E|----------------------------------|--------------------------------|
B|----------------------------------|--------------------------------|
G|-------11-7---------6-------------|--------------------------------|
D|-----9------9-6-------7---7/4-----|------7-6---------6-5-----------|
A|7-11------------7-9-----9-----5-4-|5-4-5-----8-4-3-4-----7-3-2-1---|
E|----------------------------------|--------------------------------|
pm. .  .        . . .     .     . .  . . .     . . . .     . . . .
Добавлено: 07.05.2012
Другие материалы по этой песне:

Страница создана 28.04.2012
http://primanota.ru/cynic/the-unknown-guest-chords.htm
Привет, Гость.
Предлагаем пройти революционный курс по гитаре.
Подарок от PrimaNota.Ru, забирай!