PrimaNota.ru - самый крупный в мире бесплатный архив песенных текстов, аккордов, табулатур и нот


Cyberbully Mom Club - Tough Guy - таба, видео

Регистрация Запомнить меня
Войти через:  Facebook Google Twitter Vk Yandex Mail.ru

Cyberbully Mom Club - Tough Guy - таба, видео

Печатать
Просмотров: 90
-------------------------------------------------------------------------------
                             Tough Guy - Cyberbully Mom Club
-------------------------------------------------------------------------------
Tabbed by: user pete-townshend
E-mail: watchout182@yahoo.fr

Tuning: Standard


                D#m                              B   

e|-6---6---6---6---6---6---6---6---7---7---7---7---7---7---7---7-------------|
B|---7---7---7---7---7---7---7---7-------------------------------------------|
G|-----------------------------------8---8---8---8---8---8---8---8-----------|
D|-8-------8-------8-------8-------------------------------------------------|
A|---------------------------------------------------------------------------|
E|---------------------------------7-------7-------7-------7-----------------|



i'm afraid of looking up and not seeing the sky
i am afraid of the word 'boy' in every conversation line
and i am afraid that my hero will always kill me in the end
and that my friends, oh god my friends, i'm fucking scared of losing them

and i know that i'll never be a tough guy
and i know i can't handle anything without losing my mind

(so)

sit me down and shut me up and pin me to the floor
tell me everything's alright, promise that i need nothing more
and i will smile, i will smile, i will smile, i will smile and look towards
the brighter side.
and i will smile i will smile i will smile, i will smile
and look towards the brighter side of this
on-going company of miles
and i will smile,
and look towards the brighter side


************************************

| /   slide up
| \   slide down
| h   hammer-on
| p   pull-off
| ~   vibrato
| +   harmonic
| x   Mute note
| b   Bend
| pb  Pre-bend
| br  Bend release
| pbr Pre-bend release
| brb Bend release bend

************************************
Добавлено: 19.06.2016
Другие материалы по этой песне:
  • Аккорды и текст

Страница создана 19.06.2016
http://primanota.ru/cyberbully-mom-club/tough-guy-chords.htm
Привет, Гость.
Предлагаем пройти революционный курс по гитаре.
Подарок от PrimaNota.Ru, забирай!