PrimaNota.ru - самый крупный в мире бесплатный архив песенных текстов, аккордов, табулатур и нот


Cutting Jade - She Says - таба, видео

Регистрация Запомнить меня
Войти через:  Facebook Google Twitter Vk Yandex Mail.ru

Cutting Jade - She Says - таба, видео

Печатать
Просмотров: 99
     SONG: SHE SAYS
     ARTIST: CUTTING JADE
     ALBUM: ????
     WEBSITE:www.cuttingjade.co.za
     TYPE: Guitar Tablature
     TABBED BY: Mossie
     EMAIL: mossiespy@yahoo.com

HERE IT IS-JUST PIECE THE PIECES TOGETHER AND
THERE YOU GO


 INTRO              *----------------------|  2x
e:---2--2--2h4------2---2---2--2--2---2----|
b:-------------2----4---4---2--2--2---4----|
g:------------------4---4---4--4--4---4----|
d:------------------4---4---4--4--4---4----|
a:------------------2---2---2--2--2---2----|
e:-----------------------------------------|

 INTRO (continued)
e:---2--2--2h4----4---4---4---4---4---4---4---4---4---4---4---4---|
b:-------------2--4---4---4---4---4---4---4---4---4---4---4---4---|
g:----------------4---4---4---6---4---4---4---6---4---4---4---4---|
d:----------------6---6---6---6---6---8---6---6---6---8---6---6---|
a:----------------6---6---6---6---6---6---6---6---6---6---6---6---|
e:----------------4---4---4---4---4---4---4---4---4---4---4---4---|

VERSE
  G#m        F#           G#m
e:-4----------2------------4----------|
b:-4----------2------------4----------|
g:-4-x times--3-x times----4-pulsate--|  B  F#  G#m
for VERSE 2 & 3
d:-6----------4------------6----------|
a:-6----------4------------6----------|
e:-4----------2------------4----------|


BRIDGE
    E            F#
e:--0------------2----------|
b:--0------------2----------|
g:--1-x times----3-x times--|
d:--2------------4----------|
a:--2------------4----------|
e:--0------------2----------|


VERSE 1
She said she is not perfect
She said she is not wonderful
He said he knows she's not perfect
She does something strange to his soul

	BRIDGE 1
	He doesn't know how
	He doesn't know why
	He doesn't know if
	He'll ever get by

VERSE 2
She says she is no angel
What she has done to him she might as well be
She says he is in danger
Wish he were away irrevocably

	BRIDGE 2
	But he doesn't how
	He doesn't know why
	He doesn't know if
	He'll ever get by
	Oh no

	CHORUS
          E                    B
	Maybe I'm just a little sentimental
             F#                G#m      F#
	Baby gotta find a girl just as crazy
            E               B        F#
	Who will be allright in the end
          E                      B
	Said maybe I'm just a little sentimental
             F#               G#m       F#
	Baby gotta find a girl just as crazy
            E                B        F#
	Who will be allright in the end
             E                     F#

	Who will be allright, will be allright
             G#m
	In the end

VERSE 3
She says he has lost his mind
He nods and smiles in recognition
Sometime, somewhere he's heard this all before
And it may be true by repetition

	BIRDGE 3
	But he doesn't how
	He doesn't know why
	He doesn't know if
	He'll ever get by
	Oh no

	CHORUS
	Maybe I'm just a little sentimental
	Baby gotta find a girl just as crazy
	Who will be allright in the end
	Said maybe I'm just a little sentimental
	Baby gotta find a girl just as crazy
	Who will be allright in the end
	Who will be allright, will be allright
	In the end
	Who will be allright, will be allright
	In the end


SOLO
        B                                  E
                 F#
e:---------------------------------------------------------------------------------------|
b:---0------0--------------------------------12----12----12------------------------------|
g:---11b13--11-11-13-11--9--11--9----9h11h13----13----13----13--11--11b12r11-------------|
d:---------------------------------------------------------------------------14-11-14----|
a:---------------------------------------------------------------------------------------|
e:---------------------------------------------------------------------------------------|

        E                      F#
G#m
e:-------------------------------------------------------------|
b:------------------------------------------13b14r13b14r13~~~--|
g:--------------------------------------11---------------------|
d:-----------11--13---9----------11--13------------------------|
a:---11--13---------------11--13-------------------------------|
e:-------------------------------------------------------------|


	CHORUS
	Maybe I'm just a little sentimental
	Baby gotta find a girl just as crazy
	Who will be allright in the end
	Said maybe I'm just a little sentimental
	Baby gotta find a girl just as crazy
	Who will be allright in the end
	Who will be allright, will be allright
	In the end
	Who will be allright, will be allright
	In the end
	Who will be allright, will be allright
	In the end
	Who will be allright, will be allright
	In the end
        FADE OUT

ENJOY THIS GREAT SONG AND REMEMBER CUTTING JADE ROCKS
Добавлено: 11.04.2012
Другие материалы по этой песне:
  • Аккорды и текст

Страница создана 11.04.2012
http://primanota.ru/cutting-jade/she-says-chords.htm
Привет, Гость.
Предлагаем пройти революционный курс по гитаре.
Подарок от PrimaNota.Ru, забирай!