PrimaNota.ru - самый крупный в мире бесплатный архив песенных текстов, аккордов, табулатур и нот


Cute - Sekaiichi Happy Na Onna No Ko - таба, видео

Регистрация Запомнить меня
Войти через:  Facebook Google Twitter Vk Yandex Mail.ru

Cute - Sekaiichi Happy Na Onna No Ko - таба, видео

Печатать
Просмотров: 107
Sekaiichi Happy Na Onna No Ko
(The Happiest Girl In The World)
by °C-ute
tabbed by manOutOfTime
Key: Dm 

INTRO:

---------------------------------|--------------------------------------|
-10-10-1010-1010-11-11-1111-1111-|-10vvv-10-11-13---13p11p10------------|
-10-10-1010-1010-12-12-1212-1212-|---------------------------12-10vvvv--|
-10-10-1010-1010-11-11-1111-1111-|--------------------------------------|
---------------------------------|--------------------------------------|
-----------------------------x2--|--------------------------------------|
                                   F           C            Bbm 
---------------------------------------------|
-------10vvv-10-11-13-----13p11p10-----------|
-10h12------------------10---------/12-10vvv-|
---------------------------------------------|
---------------------------------------------|
---------------------------------------------|
       F            C              Bbm

VERSE:
Youyaku
F                 C#      Am        Dm
Dekkai wo sora ga oshiete kureta no wa
    Gm      C  Am    Dm Bb  B    C
Ima watashi ga shinakya naranu koto

---------|
---------|
---------|
---5-4-3-|
-3-------|
---------|

Tonikaku
F           C#      Am        Dm
Onnanoko ni umarete kita kara wa
        Gm    C  Am  Dm  Bb         C
Watashi ni shika dekinai koishite mitai

F             D#
Chiisana koro yumemiteta
Bbm          C#
"Youchien no sensei" to wa
Am            Dm         Gm    (b--3-2-1)
Chotto chigau shinro wo eranda

F           /D#
Akogareteta kinjo no o-nii-san
Bbm         C#
Mousugu sugoi kirei na hito to
Am           Dm          Gm 
Kekkon suru tte mama ga itteta

--------------|
-------3--1-1-|
-3------------|
----3---------|
--------------|
--------------|

Bb   C          F       Dm
Hibi henka suru waga jinsei
Gm                         C
Nanto kasurukkya nai ne jinsei

------------|
------------|
------------|
------------|
------------|
-3-5-6-8----|

CHORUS:
Wow wow yeah yeah
F
Onnanoko tte fushigi
C
Sukoshi deinjaa na ren'ai
Dm            G      C
Motome nagara ikite iru

----------------------|
----------------------|
-5545--545--545678910-|
-5545--545--545678910-|
----------------------|
----------------------|

Wow wow yeah yeah
F
Shoujiki itte charai
C
Aitsu ni chotto i love you
Dm                 G         C
Dou yatte kyori chijimeyou kana

---------------------|
---------------------|
-xx-5--xx-5--5-2-345-|
-xx-5--xx-5--5-2-345-|
---------------------|
---------------------|

Bb      C      F      Dm
Honto hane sou kuyashii
Bb  C    Dm
Maketakunai

---------|
-10--987-|
-10--987-|
---------|
---------|
---------|

Bb    C      F   Dm
Sekai de ichiban happy!
Bb     C 
Mezasu'n 

------------|
------------|
-545-66--5--|
-545-66--5--|
------------|
------------|

da mon!!

INTRO
F              C            Bbm x2

VERSE:
Soro soro
F                  C#        Am      Dm
Chicchai kono mune ni himeru yabou-tachi
      Gm C  Am    Dm Bb   B   C
Yuuki motte minna ni tsutae nakya

---------|
---------|
---------|
---5-4-3-|
-3-------|
---------|

Somo somo
F            C#       Am     Dm
Otokonoko ni motomeru jouken wa
         Gm C  Am Dm   Bb  B   C
Kyuushuu ryoku ne bari youryou yoku

F             /D#
Chiisana koro shinjiteta
Bbm        C#
Ookiku nareba terebi dete
Am          Dm         Gm    (b--3-2-1)
Kawaii fuku de uta wo utau to

F            /D#
Itsunomanika aidoku sho
Bbm          C#
Baito zasshi to fasshon shi
Am           Dm              Gm    
Tomodachi to mawashi yomi shiteru

--------------|
-------3--1-1-|
-3------------|
----3---------|
--------------|
--------------|

Bb     C        F      Dm
Ano ko ni nande ikemen no
Gm                    C
Kare ga dekin no fukouhei

------------|
------------|
------------|
------------|
------------|
-3-5-6-8----|

CHORUS:

Wow wow yeah yeah
F
Onnanoko tte raibaru ni
C
Maketaku naishi ganbaru
Dm          G         C
Oomie kitte fuku mo kau

----------------------|
----------------------|
-5545--545--545678910-|
-5545--545--545678910-|
----------------------|
----------------------|

Wow wow yeah yeah
F
Shoujiki itte kacchoii
C
Ano ko ni chotto jerashii
Dm                G       C
Dou yatte dashinukou kashira

---------------------|
---------------------|
-xx-5--xx-5--5-2-345-|
-xx-5--xx-5--5-2-345-|
---------------------|
---------------------|

Bb       C    F     Dm
Honto wa ne saboritai
Bb   C   Dm
Toki mo aru

---------|
-10--987-|
-10--987-|
---------|
---------|
---------|

Bb    C   F      Dm
Sekai de ichiban happy!
Bb     C        
Mezasu wa tada

SOLO

------------8----------------------|------------------8---------/8-12-13vv-|
-8h10vvv------11-10vv----8v--------|---------10vvv------11-10vv------------|
---------10-----------/9----10vvv--|-9-10-12-------10----------------------|
-----------------------------------|---------------------------------------|
-----------------------------------|---------------------------------------|
-----------------------------------|---------------------------------------|
                                                                        
-12b-12-11-10vv-8-10-13-12vv-|-12-13-15v-12-15-17-13vv-|
-12b-12-11-10-----------12vv-|-12-13-15v-12-15-17-13vv-|
-----------------------------|-------------------------|
-----------------------------|-------------------------|
-----------------------------|-------------------------|
-----------------------------|-------------------------|
                                                                              
-15-17-18br-17vv-18-20br-18vv-----------------------------|
-15-17-18br-17vv-18-20br-18vv-18-xx-20-xx-20--17-18-19-20-|
------------------------------17-xx-19-xx-19--------------|
----------------------------------------------------------|
----------------------------------------------------------|
----------------------------------------------------------|

Wow wow yeah yeah
F
Onnanoko tte raibaru ni
C
Maketaku naishi ganbaru
Dm          G         C
Oomie kitte fuku mo kau

----------------------|
----------------------|
-5545--545--545678910-|
-5545--545--545678910-|
----------------------|
----------------------|

Wow wow yeah yeah
F
Shoujiki itte kacchoii
C
Ano ko ni chotto jerashii
Dm                G       C
Dou yatte dashinukou kashira

---------------------|
---------------------|
-xx-5--xx-5--5-2-345-|
-xx-5--xx-5--5-2-345-|
---------------------|
---------------------|

Bb       C    F     Dm
Honto wa ne saboritai
Bb   C   Dm
Toki mo aru

---------|
-10--987-|
-10--987-|
---------|
---------|
---------|

Bb    C   F      Dm
Sekai de ichiban happy!
Bb     C        
Mezasu wa 

------------|
------------|
-545-66--5--|
-545-66--5--|
------------|
------------|

tada

INTRO:
--------------------------------------|
-10vvv-10-11-13---13p11p10------------|
---------------------------12-10vvvv--|
--------------------------------------|
--------------------------------------|
--------------------------------------|
 F            C                   Bbm 
---------------------------------------------|
-------10vvv-10-11-13-----13p11p10-----------|
-10h12------------------10---------/12-10vvv-|
---------------------------------------------|
---------------------------------------------|
---------------------------------------------|
       F            C              Bbm

-/18-17-18-20------20------------20v-18-17-/17-1515--13-12---------------|
--------------18vv----18vv-17-18---------------------------13-15vvvvvvvv-|
-------------------------------------------------------------------------|
-------------------------------------------------------------------------|
-------------------------------------------------------------------------|
-------------------------------------------------------------------------|
           Gm      Am            Bb         C                  Dm
Добавлено: 14.10.2013
Другие материалы по этой песне:

Страница создана 12.08.2013
http://primanota.ru/cute/sekaiichi-happy-na-onna-no-ko-chords.htm
Привет, Гость.
Предлагаем пройти революционный курс по гитаре.
Подарок от PrimaNota.Ru, забирай!