PrimaNota.ru - самый крупный в мире бесплатный архив песенных текстов, аккордов, табулатур и нот


Cute - Iza Susume Steady Go - таба, видео

Регистрация Запомнить меня
Войти через:  Facebook Google Twitter Vk Yandex Mail.ru

Cute - Iza Susume Steady Go - таба, видео

Печатать
Просмотров: 76
Iza, Susume! Steady go!
by °C-ute
tabbed by manOutOfTime
Key: Cm

-------------------------------|----------------------------------------------|
------------6------------8-6---|------------6----8----------------------------|
-5--5-5-7-8----8-7-5---------7-|-5--5-5-7-8----8-----7vvvv\-0--00-------------|
---------------------8---------|----------------------------------33-11-------|
-------------------------------|----------------------------------------------|
-------------------------------|----------------------------------------------|

    Cm
Iza susume susume susume tsuppare WowWow Yeah! Steady go!
Iza hashire hashire hashire tsukkome WowWow Yeah! Steady go!
                G#    D#              Bb
Kakko tsukesugi chuui senobishisugite tsumazuku ze
Cm                 G#      Gm              Cm
Chikara wo awasete yuku ze kiseki ga okoru ze steady go
Iza susume susume susume tsuppare WowWow Yeah! Steady go!

G#    Gm         Cm     D#
Ramen tsukuri no tensai mo
    G#            Gm
Kurasu de mannaka kurai no seiseki demo
Yume wa mugen

Cm                 D#
WowWowWowWowWowWow Happy
Fm                 G#
WowWowWowWowWowWow Lucky
Gm             G#        Gm
Positive shika atama ni ukande konai
Cm                 D#
WowWowWowWowWowWow zenshin
Fm                 G#
WowWowWowWowWowWow yashin
Gm          G#  Gm Cm
Sekai wa chikakunatta

INTRO RIFF

    Cm
Iza susume susume susume tsuppare WowWow Yeah! Steady go!
Iza hashire hashire hashire tsukkome WowWow Yeah! Steady go!
                G#    D#              Bb
Shikamettsura ja sae nee sonna katakucha kate nee ze
Cm                 G#      Gm              Cm
Warai jouwa ga tae nee mirai wo tsukuru ze steady go
Iza susume susume susume tsuppare WowWow Yeah! Steady go!

G#    Gm         Cm     D#
Gakkou kaeri ni tachiyotta
    G#            Gm
Ano ko no ie no posuto ni tegami ireta yo
Kizuite beibee

Cm                 D#
WowWowWowWowWowWow Happy
Fm                 G#
WowWowWowWowWowWow Lucky
Gm              G#             Gm
Bokura ni shika dekinai communication
Cm                 D#
WowWowWowWowWowWow zenshin
Fm                 G#
WowWowWowWowWowWow yashin
Gm         G#    Gm  Cm
Sekai to tomo ni nareru

SOLO
--------------------------|-------------------------|-------11-13-14-15-------|
-----4-6-7-8--6---6-------|-----4-6-7-8-6---6--8vvv-|-7/13--------------------|
-2/5------------8---8vvv--|-2/5-----------8---------|-------------------------|
--------------------------|-------------------------|-------------------------|
--------------------------|-------------------------|-------------------------|
--------------------------|-------------------------|-------------------------|

-13----13--------|------11-13-14-15--15-18-15-18-20-|-------------------------|
----16-----16vvv-|-7/13-----------------------------|-------------------------|
-----------------|----------------------------------|-------------------------|
-----------------|----------------------------------|-------------------------|
-----------------|----------------------------------|-------------------------|
-----------------|----------------------------------|-------------------------|

-----------------------|--------------------------------|---------------|-----|
-17b18-----16b17-16vvv-|-/15--15-1616-16151315-15131113-|-1311911-11989-|-----|
-----------------------|--------------------------------|---------------|-----|
-----------------------|--------------------------------|---------------|-----|
-----------------------|--------------------------------|---------------|-----|
-----------------------|--------------------------------|---------------|-----|

-----------------------------------------------------15-16-18-|---------------|
-8b-8-888-6/11-11-11--9/13-13-13--11/15-15-15--16-18----------|---------------|
--------------------------------------------------------------|---------------|
--------------------------------------------------------------|---------------|
--------------------------------------------------------------|---------------|
--------------------------------------------------------------|---------------|

-/17/16/15-14-13-12-11-10-8-11-10-8-----------------------------------1-------|
------------------------------------11--11-9-13-11\10\9\8\7\6\5\4-1-4---4-----|
------------------------------------------------------------------------6b----|
---------------------------------------------------------------------------3--|
------------------------------------------------------------------------------|
------------------------------------------------------------------------------|

---|--------10-----15------17------17/19vvvv-|--------------------------------|
---|-/8-8-8-----12------12------12-----------|--------------------------------|
-3-|-----------------------------------------|--------------------------------|
---|-----------------------------------------|--------------------------------|
---|-----------------------------------------|--------------------------------|
---|-----------------------------------------|--------------------------------|
Ah! Ah! Ah! Yeah!

Cm                 D#
WowWowWowWowWowWow Happy
Fm                 G#
WowWowWowWowWowWow Lucky
Gm              G#             Gm
Bokura ni shika dekinai communication
Cm                 D#
WowWowWowWowWowWow zenshin
Fm                 G#
WowWowWowWowWowWow yashin
Gm         G#    Gm  Cm
Sekai to tomo ni nareru

INTRO RIFF

------------------------------------------------------------------------------|
------------------------------------------------------------------------------|
-12-1212-1111-1010-5----------------------------------------------------------|
-12-1212-1111-1010-5----------------------------------------------------------|
-10-1010-9-9--8-8--3----------------------------------------------------------|
------------------------------------------------------------------------------|
Добавлено: 06.06.2013
Вам также может быть интересно:
Другие материалы по этой песне:
  • Аккорды и текст

Страница создана 06.06.2013
http://primanota.ru/cute/iza-susume-steady-go-chords.htm
Привет, Гость.
Предлагаем пройти революционный курс по гитаре.
Подарок от PrimaNota.Ru, забирай!