PrimaNota.ru - самый крупный в мире бесплатный архив песенных текстов, аккордов, табулатур и нот


Cute Is What We Aim For - Risque Live - аккорды и текст, таба, видео

Регистрация Запомнить меня
Войти через:  Facebook Google Twitter Vk Yandex Mail.ru

Cute Is What We Aim For - Risque Live - аккорды и текст, таба, видео

Печатать
Просмотров: 117
Risque Live
Cute Is What We Aim For
Cute Is What We Aim For - Risque

Tabbed by : jonnestl
tuning : standard
acoustic version.
pretty simple song  :D



Chord
e|----0-----0-----0-----0-------------------|
B|----3-----3-----3-----3-------------------|
G|----2-----2-----2-----2-------------------|
D|----0-----2-------------------------------|
A|----------------2-------------------------|
E|----------------------3-------------------|
      D     A     Bm    G

or just use the simple chord.


INTRO
       D                                          
I got birds in my ears and a devil on my shoulder,
       A
And a phone to the other and I can't get a hold of her 
 Bm
What's a crush to do? 
 G
What's a crush to do, when he can't get through? 


Verse 1 : "medically speaking.."
e|------------------------------------------------|
B|------------------------------------------------|
G|------------------------------------------------|
D|-------7----------7----------7-------7----7-----|x7
A|-----5---5------5---5------5---5----------------|
E|--3----------5----------7----------7----5-------|

or ( the easy one )
 
e|------------------------------------------------|
B|------------------------------------------------|
G|------2---------2----------2--------2----2------|
D|----0---0-----0---0------0---0------------------|x7 
A|------------0----------2----------2----0--------|
E|--3---------------------------------------------|

Medically speaking your adorable 
And from what I hear your quite affordable 
But I like them pricey 
So exaggerate and t-t-t-t-t-t-trick me 
Pretty please just trick me, pretty please 





CHORUS 
        D
I got birds in my ears and a devil on my shoulder, 
        A
And I phone to the other and I can't get a hold of her 
  Bm   
What's a crush to do? 
  G
What's a crush to do when he can't get through? 




Verse 2 (same as verse 1)
I'm obsessed and stressed with this mess 
I can't think of things, to write down, to type down 
And these fingertips are moving faster than these lips 
So you can only imagine how jealous my mouth is 
So you can only imagine how jealous my mouth is 


CHORUS
        D
I got birds in my ears and a devil on my shoulder,
       A 
And a phone to the other and I can't get a hold of her 
Bm
What's a crush to do? 
A
What's a crush to do-oooo..
       D                       A
I got birds in my ears and a devil on my shoulder... 
G                                    A
What's a crush, what's a crush... to do-ooooo 



BRIDGE
Bm            G       
Oh oh-oh-oh, yeh-eh-eh
D     A 
Ahhh ...
Bm 
I'll turn on a dime, spin round, 
G
So you can shine, shine right now 
D
We'll even have a crowd 
A
We'll make this purchase count



(i'm not quite sure about this part)
G            D             A   
Medically speaking your adorable
G            D                 A 
From what I hear your quite affordable 
G               A
But I like them pricey 
D                  A
So exaggerate and t-t-t-t-t-t-trick me 


       D..
I got birds in my ears... 
       A..
And a devil on my shoulder 
Bm
What's a crush to do? 
A
What's a crush to do? 


       D                      A            
I got birds in my ears and a devil on my shoulder,
Bm
What's a crush..
                    A
What's a crush.. to do-ooo
       D                      A
I got birds in my ears and a devil on my shoulder... 
Bm                                    A
What's a crush, what's a crush... to do-ooooo 
                   D
When he can't get through..


END
Добавлено: 24.02.2012
Вам также может быть интересно:
Другие материалы по этой песне:
  • Аккорды и текст

Страница создана 24.02.2012
http://primanota.ru/cute-is-what-we-aim-for/risque-live-chords.htm
Привет, Гость.
Предлагаем пройти революционный курс по гитаре.
Подарок от PrimaNota.Ru, забирай!