PrimaNota.ru - самый крупный в мире бесплатный архив песенных текстов, аккордов, табулатур и нот


Cute Is What We Aim For - Newport Living - текст песни, таба, бас-таба, видео

Регистрация Запомнить меня
Войти через:  Facebook Google Twitter Vk Yandex Mail.ru

Cute Is What We Aim For - Newport Living - текст песни, таба, бас-таба, видео

Печатать
Просмотров: 188
Verse:
[Guitar 1]
e|-----------------------------------|
B|-----------------------------------|
G|-7-------5---3----7--------5---3---|
D|-7---3---5---3----7---3----5---3---|
A|-5---3---3---1----5---3----3---1---|
E|-----1----------------1------------|
[palm mute.........................]

[Guitar 2]
e|--------------------------|
B|--------------------------|
G|--10-10-9-9-10-10-9-9-----|
D|--x--x--x-x-x--x--x-x-----|
A|--8--8--8-8-8--8--8-8-----|
E|--------------------------|

Pre Chorus: (If you lie you don't deserve to have friends..)
e|-----------------------|
B|-----------------------|
G|--7-------------5------|
D|--7----7----5---5------|
A|--5----7----5---3------|
E|-------5----3----------|
[palm mute.........}

Chorus:
e|---------------------------|
B|---------------------------|
G|--7---------3---5---6--7---|
D|--7---7-----3---5---5--7---|
A|--5---7-----1---3---4--5---|
E|------5--------------------|

Verse 2:
e|-------------------------------------------------------------------------|
B|-------------------------------------------------------------------------|
G|---5---3---7---5-7-7---5-7-7----5---3---7---5-7-7---5-7-7----5----3------|
D|---5---3---7---5-7-7---5-7-7----5---3---7---5-7-7---5-7-7----5----3------|
A|---3---1---5---3-5-5---3-5-5----3---1---5---3-5-5---3-5-5----3----1------|
E|-------------------------------------------------------------------------|
[palm mute the whole time]
Добавлено: 12.03.2012
Другие материалы по этой песне:
  • Аккорды и текст

Страница создана 25.02.2012
http://primanota.ru/cute-is-what-we-aim-for/newport-living-chords.htm
Привет, Гость.
Предлагаем пройти революционный курс по гитаре.
Подарок от PrimaNota.Ru, забирай!