PrimaNota.ru - самый крупный в мире бесплатный архив песенных текстов, аккордов, табулатур и нот


Cute Is What We Aim For - Moan - текст песни, таба, бас-таба, видео

Регистрация Запомнить меня
Войти через:  Facebook Google Twitter Vk Yandex Mail.ru

Cute Is What We Aim For - Moan - текст песни, таба, бас-таба, видео

Печатать
Просмотров: 225
Уроки эстрадного вокала в Санкт-Петербурге
Moan by Cute Is What We Aim For

Pretty sure this is all right, however if you have any corrections, please make a comment! 
Verse
e|----------------------------|
B|----------------------------|
G|-12--12-12-12--11--11-12-11-|
D|-12--12-12-12--12--12-12-12-| x 4
A|-10--10-10-10--10--10-10-10-|
E|----------------------------|

Pre-chorus
e|--------------------------------------------------|
B|-12----12-13----13-12----12-10-101010101010101010-|
G|-12----12-12----12-12----12-11-111111111111111111-|
D|-12----12-12----12-12----12-12-121212121212121212-|
A|-10----10-10----10-10----10-10-101010101010101010-|
E|--------------------------------------------------|

Chorus
e|---------------------------------------------------------------------|
B|---------------------------------------------------------------------|
G|------------------4444444444444444-5555555555555555-7777777777777777-|
D|-5555555555555555-4444444444444444-5555555555555555-7777777777777777-| x 2
A|-5555555555555555-2222222222222222-3333333333333333-5555555555555555-|
E|-3333333333333333----------------------------------------------------|

Verse
e|-------------------------------------------------|
B|-------------------------------------------------|
G|-12-12-12-12-12-12-12-12-12-12-12-12-11-11-11-11-|
D|-12-12-12-12-12-12-12-12-12-12-12-12-12-12-12-12-| x 3
A|-10-10-10-10-10-10-10-10-10-10-10-10-9--9--9--9--|
E|-------------------------------------------------|

Repeat Pre- chorus

Repeat Chorus ending on
e|-----|
B|-----|
G|-12~-|
D|-12~-|
A|-10~-|
E|-----|

Bridge
e|-----------------|
B|-----------------|
G|-12~-11~---------|
D|-12~-12~-12~-14~-|
A|-10~-10~-10~-10~-| x 5
E|-12~-10~-7~--8~--|

e|-----------------------------------------|
B|-----------------------------------------|
G|-12-12--12-11-11--11---------------------|
D|-12-12--12-12-12--12-12-12--12-14-14--14-|
A|-10-10--10-10-10--10-10-10--10-10-10--10-| x 4
E|-12-12--12-10-10--10-7--7---7--8--8---8--|

e|-----------------|
B|-----------------|
G|-12~-11~---------|
D|-12~-12~-12~-14~-|
A|-10~-10~-10~-10~-| x 2
E|-12~-10~-7~--8~--|

Repeat Chorus ending on
e|-----------------------------|
B|-----------------------------|
G|-12-12-12-1212-12-12-12-1212-|
D|-12-12-12-1212-12-12-12-1212-| x 2
A|-10-10-10-1010-10-10-10-1010-|
E|-----------------------------|

e|-----|
B|-----|
G|-12~-|
D|-12~-|
A|-10~-|
E|-----|
Добавлено: 25.04.2012
Другие материалы по этой песне:
  • Аккорды и текст

Страница создана 14.04.2012
http://primanota.ru/cute-is-what-we-aim-for/moan-chords.htm
Привет, Гость.
Предлагаем пройти революционный курс по гитаре.
Подарок от PrimaNota.Ru, забирай!