PrimaNota.ru - самый крупный в мире бесплатный архив песенных текстов, аккордов, табулатур и нот


Cute Is What We Aim For - Hipbones And Microphones - таба, бас-таба, видео

Регистрация Запомнить меня
Войти через:  Facebook Google Twitter Vk Yandex Mail.ru

Cute Is What We Aim For - Hipbones And Microphones - таба, бас-таба, видео

Печатать
Просмотров: 185
Уроки эстрадного вокала в Санкт-Петербурге
"Hipbones and Microphones" is the newest Cute Is What We Aim For song so I hope you like 
tabs!

Main Picking:
E----------------------------------------/
B----------------------------------------/
G---------12----11-------------7-----6---/   x6
D----------------------------------------/
A----------------------------------------/
E------12------------------7-------------/

Bridge/Chorus Part:
Give them hell...
E----------------------------------------|
B----------------------------------------|
G-----7-----9---9-----7----9-9-9-9-------|
D----------------------------------------|
A----------------------------------------|
E-----7-----9---9-----7----9-9-9-9-------|

Chatting way out...

E---------------------------------------------|
B---------------------------------------------|
G---7-7--777--7----9-9--999--9----7-7--777--7-|   Same chords throughout the
D---------------------------------------------|   chorus.
A---------------------------------------------|
E---7-7--777--7----9-9--999--9----7-7--777--7-|
Добавлено: 25.07.2012
Другие материалы по этой песне:
  • Аккорды и текст

Страница создана 11.06.2012
http://primanota.ru/cute-is-what-we-aim-for/hipbones-and-microphones-chords.htm
Привет, Гость.
Предлагаем пройти революционный курс по гитаре.
Подарок от PrimaNota.Ru, забирай!