PrimaNota.ru - самый крупный в мире бесплатный архив песенных текстов, аккордов, табулатур и нот


Cut Off Your Hands - Still Fond - таба, видео

Регистрация Запомнить меня
Войти через:  Facebook Google Twitter Vk Yandex Mail.ru

Cut Off Your Hands - Still Fond - таба, видео

Печатать
Просмотров: 106
-------------------------------------------------------------------------------
                             Still Fond – Cut Off Your Hands
-------------------------------------------------------------------------------
Tabbed by: Aussiedude777

Tuning: Standard
        Clean Guitar

The whole song for the guitar is basically playing these chords over and over. So here
they are.
The strumming pattern changes throughout the song but the main strumming pattern in the
verse and chorus is
1 chord- D,D,D,D,D,D,D,U
2 chord- U,U,D,D,D,D,D,U

Please Rate if you like it.
Also let me know if you have any corrections. Thanks.

e|----------6-----------------8----------------------------------------------|
B|----------7-----------------9----------------------------------------------|
G|----------8------x8--------10-----x8---------------------------------------|
D|----------8----------------10----------------------------------------------|
A|----------6-----------------8----------------------------------------------|
E|----------X-----------------X----------------------------------------------|

This is the little riff that keeps repeating later in the song.
e|---------------------------------------------------------------------------|
B|------12----14----10-------------------------------------------------------|
G|---------------------------------------------------------------------------|
D|---------------------------------------------------------------------------|
A|---------------------------------------------------------------------------|
E|---------------------------------------------------------------------------|

And then still later in the song this happens.
e|---------------------------------------------------------------------------|
B|-17-15-17-15----17-17-17-17-17-17-17-17-15-15-15-15-15-15-15-15------------|
G|---------------------------------------------------------------------------|
D|---------------------------------------------------------------------------|
A|---------------------------------------------------------------------------|
E|---------------------------------------------------------------------------|

e|---------------------------------------------------------------------------|
B|-17-17-17-17-17-17-17-17-15-15-15-15-15-15-15-15---------------------------|
G|---------------------------------------------------------------------------|
D|---------------------------------------------------------------------------|
A|---------------------------------------------------------------------------|
E|---------------------------------------------------------------------------|

e|--------1------3--------5--------3--------5---------3--------5-------------|
B|--------2------4--------6--------4--------6---------4--------6-------------|
G|--------3------5---x6---7---x6---5---x6---7---x6----5---x6---7---x6--------|
D|--------3------5--------7--------5--------7---------5--------7-------------|
A|--------1------3--------5--------3--------5---------3--------5-------------|
E|--------X------X--------X--------X--------X---------X--------X-------------|

If you listen to the song you should be able to figure out the strumming pattern.

After that you carry on playing that riff and then you end on the chord that starts in 
tab above.


Lyrics

girl you need to know this now
even though it may not show
but i still love you more and more each day
sometimes i can be so harsh
sometimes you can be so harsh
its ok to say we always thought it would be fine.
girl i know we let things come between us now
but you know i still fall for you each day its true
but still i want you by my side
if you still want me by your side
we can find some way to make things work again some how
darling i need you to forget everything
oh darling i need want you to come back home again
girl i'd like to let you know that although i'm so unkind
i'm still fond of you and thats the truth
i know i know i can't pretend to know exactly what you want
i still want you by my side
if you still want me by your side
we can find some way to make things work again i'm sure
darling i need you to forget everything
oh darling i need want you to come back home again
oh girl you need to know even though it may not show
but i'm still fond you yeah i'm still fond of you
oh girl you need to know even though it may not show
but i'm still fond you yeah i'm still fond of you
oh oh
darling i need you to forget everything
oh darling i need want you to come back home again
oh darling i need you to forget everything
oh darling i need want you to come back home again
Добавлено: 09.06.2012
Вам также может быть интересно:
Другие материалы по этой песне:
  • Аккорды и текст

Страница создана 09.06.2012
http://primanota.ru/cut-off-your-hands/still-fond-chords.htm
Привет, Гость.
Предлагаем пройти революционный курс по гитаре.
Подарок от PrimaNota.Ru, забирай!