PrimaNota.ru - самый крупный в мире бесплатный архив песенных текстов, аккордов, табулатур и нот


Customs - You - таба, видео

Регистрация Запомнить меня
Войти через:  Facebook Google Twitter Vk Yandex Mail.ru

Customs - You - таба, видео

Печатать
Просмотров: 80
-------------------------------------------------------------------------------
                             You - Customs ( cover van Scooter )
-------------------------------------------------------------------------------
Tabbed by:Kristof Reynders
Email:kristof_reynders@msn.com

Tuning: E



Intro rhythm guitar ( kristof uittebroek ), alternate & palm mute dit stuk

play this 6 times

e|---------------------------------------------------------------------------|
B|---------------------------------------------------------------------------|
G|---------------------------------------------------------------------------|
D|-9-9-9-9-9-9-9-9--5-5-5-5-5-5-5-5------------------------------------------|
A|-7-7-7-7-7-7-7-7--3-3-3-3-3-3-3-3------------------------------------------|
E|---------------------------------------------------------------------------|


Lead guitar ( jelle janse ) met crunchy reverb effect

e|---------------------------------------------------------------------------|
B|--12/---doorklinken en slide down------------------------------------------|
G|--12/---doorklinken en slide down------------------------------------------|
D|---------------------------------------------------------------------------|
A|---------------------------------------------------------------------------|
E|---------------------------------------------------------------------------|

e|---------------------------------------------------------------------------|
B|---20-19-20-17/ slide down-------------------------------------------------|
G|---------------------------------------------------------------------------|
D|---------------------------------------------------------------------------|
A|---------------------------------------------------------------------------|
E|---------------------------------------------------------------------------|

e|---------------------------------------------------------------------------|
B|--12/---doorklinken en slide down------------------------------------------|
G|--12/---doorklinken en slide down------------------------------------------|
D|---------------------------------------------------------------------------|
A|---------------------------------------------------------------------------|
E|---------------------------------------------------------------------------|

e|---------------------------------------------------------------------------|
B|---20-19-20-17/ slide down------ 13~---------------------------------------|
G|---------------------------------------------------------------------------|
D|---------------------------------------------------------------------------|
A|---------------------------------------------------------------------------|
E|---------------------------------------------------------------------------|

VERSE 1 Rhythm guitar, speel deze riff doorheen de volledige 1e verse

( you , you don't get trappe no more )

e|---------------------------------------------------------------------------|
B|---------------------------------------------------------------------------|
G|---------------------------------------------------------------------------|
D|-9-9-9-9-9-9-9-9--5-5-5-5-5-5-5-5------------------------------------------|
A|-7-7-7-7-7-7-7-7--3-3-3-3-3-3-3-3------------------------------------------|
E|---------------------------------------------------------------------------|

VERSE 1 Lead guitar, 

e|---------------------------------------------------------------------------|
B|---------------------------------------------------------------------------|
G|---------------------------------------------------------------------------|
D|--2-2--4-4--5-5-------2b--4-4--5-5--------2b-------------------------------|
A|-----------------5-5----------------0-2-5----------------------------------
|
E----------------------------------------------------------------------------|

pre chorus  Rhythm guitar

(dont trust the ...)

e|---------------------------------------------------------------------------|
B|---------------------------------------------------------------------------|
G|---7----5----4----5--------------------------------------------------------|
D|---7----5----4----5--------------------------------------------------------|
A|---5----3----2----3--------------------------------------------------------|
E|---------------------------------------------------------------------------|
(dont trust the ...)

e|---------------------------------------------------------------------------|
B|---------------------------------------------------------------------------|
G|---7----5----4----5--------------------------------------------------------|
D|---7----5----4----5--------------------------------------------------------|
A|---5----3----2----3--------------------------------------------------------|
E|---------------------------------------------------------------------------|

CHORUS Rhythm guitar 

( dont believe in number one)

e|--2-----3----------5-------------------------------------------------------|
B|--3-----3-----7----5-------------------------------------------------------|
G|--4-----4-----7----6-------------------------------------------------------|
D|--4-----5-----7----7-------------------------------------------------------|
A|--2-----5-----5----7-------------------------------------------------------|
E|--------3----------5-------------------------------------------------------|

( Don't rely on anyone )

e|--2-----3----------5-------------------------------------------------------|
B|--3-----3-----7----5-------------------------------------------------------|
G|--4-----4-----7----6-------------------------------------------------------|
D|--4-----5-----7----7-------------------------------------------------------|
A|--2-----5-----5----7-------------------------------------------------------|
E|--------3----------5-------------------------------------------------------|


( dont believe in number one)

e|--2-----3----------5-------------------------------------------------------|
B|--3-----3-----7----5-------------------------------------------------------|
G|--4-----4-----7----6-------------------------------------------------------|
D|--4-----5-----7----7-------------------------------------------------------|
A|--2-----5-----5----7-------------------------------------------------------|
E|--------3----------5-------------------------------------------------------|

( Don't rely on anyone )

e|--2-----3----------5-------------------------------------------------------|
B|--3-----3-----7----5-------------------------------------------------------|
G|--4-----4-----7----6-------------------------------------------------------|
D|--4-----5-----7----7-------------------------------------------------------|
A|--2-----5-----5----7-------------------------------------------------------|
E|--------3----------5-------------------------------------------------------|


Brigde part

e|---------------------------------------------------------------------------|
B|---------------------------------------------------------------------------|
G|--------------------------------------------------------9-9-9-9-9----------|
D|--9-9-9-9-9-9-9-9-9-9-9-9-9-9-9-9-9-9-9-9-9-9-9-9-9-9-9-9-9-9-9-9----------|
A|--7-7-7-7-7-7-7-7-7-7-7-7-7-7-7-7-7-7-7-7-7-7-7-7-7-7-7-7-7-7-7-7----------|
E|---------------------------------------------------------------------------|

VERSE 2 Rhythm guitar, speel deze riff doorheen de volledige 2e verse

( you , who wants to change his name )

e|---------------------------------------------------------------------------|
B|---------------------------------------------------------------------------|
G|---------------------------------------------------------------------------|
D|-9-9-9-9-9-9-9-9--5-5-5-5-5-5-5-5------------------------------------------|
A|-7-7-7-7-7-7-7-7--3-3-3-3-3-3-3-3------------------------------------------|
E|---------------------------------------------------------------------------|


Lead guitar; met crunchy reverb effect

e|-----------------------------------------19--------------------------------|
B|--12/---doorklinken en slide down-----------17-20--------------------------|
G|--12/---doorklinken en slide down------------------------------------------|
D|---------------------------------------------------------------------------|
A|---------------------------------------------------------------------------|
E|---------------------------------------------------------------------------|


e|-----------------------------------------19--------------------------------|
B|--12/---doorklinken en slide down-----------17-20--------------------------|
G|--12/---doorklinken en slide down------------------------------------------|
D|---------------------------------------------------------------------------|
A|---------------------------------------------------------------------------|
E|---------------------------------------------------------------------------|



pre chorus  Rhythm guitar

(dont trust the ...)

e|---------------------------------------------------------------------------|
B|---------------------------------------------------------------------------|
G|---7----5----4----5--------------------------------------------------------|
D|---7----5----4----5--------------------------------------------------------|
A|---5----3----2----3--------------------------------------------------------|
E|---------------------------------------------------------------------------|
(dont trust the ...)

e|---------------------------------------------------------------------------|
B|---------------------------------------------------------------------------|
G|---7----5----4----5--------------------------------------------------------|
D|---7----5----4----5--------------------------------------------------------|
A|---5----3----2----3--------------------------------------------------------|
E|---------------------------------------------------------------------------|


CHORUS Rhythm guitar 

( dont believe in number one)

e|--2-----3----------5-------------------------------------------------------|
B|--3-----3-----7----5-------------------------------------------------------|
G|--4-----4-----7----6-------------------------------------------------------|
D|--4-----5-----7----7-------------------------------------------------------|
A|--2-----5-----5----7-------------------------------------------------------|
E|--------3----------5-------------------------------------------------------|

( Don't rely on anyone )

e|--2-----3----------5-------------------------------------------------------|
B|--3-----3-----7----5-------------------------------------------------------|
G|--4-----4-----7----6-------------------------------------------------------|
D|--4-----5-----7----7-------------------------------------------------------|
A|--2-----5-----5----7-------------------------------------------------------|
E|--------3----------5-------------------------------------------------------|


( dont believe in number one)

e|--2-----3----------5-------------------------------------------------------|
B|--3-----3-----7----5-------------------------------------------------------|
G|--4-----4-----7----6-------------------------------------------------------|
D|--4-----5-----7----7-------------------------------------------------------|
A|--2-----5-----5----7-------------------------------------------------------|
E|--------3----------5-------------------------------------------------------|

( Don't rely on anyone )

e|--2-----3----------5-------------------------------------------------------|
B|--3-----3-----7----5-------------------------------------------------------|
G|--4-----4-----7----6-------------------------------------------------------|
D|--4-----5-----7----7-------------------------------------------------------|
A|--2-----5-----5----7-------------------------------------------------------|
E|--------3----------5-------------------------------------------------------|

Bridge 

(We're just a sound in our next sound, So no one hears, you see)

e|--2-----3----------5-------------------------------------------------------|
B|--3-----3-----7----5-------------------------------------------------------|
G|--4-----4-----7----6-------------------------------------------------------|
D|--4-----5-----7----7-------------------------------------------------------|
A|--2-----5-----5----7-------------------------------------------------------|
E|--------3----------5-------------------------------------------------------|

(Until the destination's found, We will laugh)

e|--2-----3----------5-------------------------------------------------------|
B|--3-----3-----7----5-------------------------------------------------------|
G|--4-----4-----7----6-------------------------------------------------------|
D|--4-----5-----7----7-------------------------------------------------------|
A|--2-----5-----5----7-------------------------------------------------------|
E|--------3----------5-------------------------------------------------------|


e|---------------------------------------------------------------------------|
B|---------------------------------------------------------------------------|
G|--7-7-9-11/--7-7-9-11/--7-7-9-11/----12-12-11-11---------------------------|
D|--5-5-7-9/---5-5-7-9/---5-5-7-9/-----10-10-9--9----------------------------|
A|---------------------------------------------------------------------------|
E|---------------------------------------------------------------------------|

e|---------------------------------------------------------------------------|
B|---------------------------------------------------------------------------|
G|--7-7-9-11/--7-7-9-11/--7-7-9-11/----12-12-11-11---------------------------|
D|--5-5-7-9/---5-5-7-9/---5-5-7-9/-----10-10-9--9----------------------------|
A|---------------------------------------------------------------------------|
E|---------------------------------------------------------------------------|

e|---------------------------------------------------------------------------|
B|---------------------------------------------------------------------------|
G|-----------9-9-9-9-9-------------------------------------------------------|
D|----7--9---9-9-9-9-9-------------------------------------------------------|
A|----5--7---7-7-7-7-7-------------------------------------------------------|
E|---------------------------------------------------------------------------|

Verse 3 Rhythm guitar, speel deze riff doorheen de volledige 3e verse

( you, who's going down the hill... ) 

e|---------------------------------------------------------------------------|
B|---------------------------------------------------------------------------|
G|---------------------------------------------------------------------------|
D|-9-9-9-9-9-9-9-9--5-5-5-5-5-5-5-5------------------------------------------|
A|-7-7-7-7-7-7-7-7--3-3-3-3-3-3-3-3------------------------------------------|
E|---------------------------------------------------------------------------|


pre chorus  Rhythm guitar

(dont trust the ...)

e|---------------------------------------------------------------------------|
B|---------------------------------------------------------------------------|
G|---7----5----4----5--------------------------------------------------------|
D|---7----5----4----5--------------------------------------------------------|
A|---5----3----2----3--------------------------------------------------------|
E|---------------------------------------------------------------------------|
(dont trust the ...)

e|---------------------------------------------------------------------------|
B|---------------------------------------------------------------------------|
G|---7----5----4----5--------------------------------------------------------|
D|---7----5----4----5--------------------------------------------------------|
A|---5----3----2----3--------------------------------------------------------|
E|---------------------------------------------------------------------------|

CHORUS Rhythm guitar 

( dont believe in number one)

e|--2-----3----------5-------------------------------------------------------|
B|--3-----3-----7----5-------------------------------------------------------|
G|--4-----4-----7----6-------------------------------------------------------|
D|--4-----5-----7----7-------------------------------------------------------|
A|--2-----5-----5----7-------------------------------------------------------|
E|--------3----------5-------------------------------------------------------|

( Don't rely on anyone )

e|--2-----3----------5-------------------------------------------------------|
B|--3-----3-----7----5-------------------------------------------------------|
G|--4-----4-----7----6-------------------------------------------------------|
D|--4-----5-----7----7-------------------------------------------------------|
A|--2-----5-----5----7-------------------------------------------------------|
E|--------3----------5-------------------------------------------------------|


( dont believe in number one)

e|--2-----3----------5-------------------------------------------------------|
B|--3-----3-----7----5-------------------------------------------------------|
G|--4-----4-----7----6-------------------------------------------------------|
D|--4-----5-----7----7-------------------------------------------------------|
A|--2-----5-----5----7-------------------------------------------------------|
E|--------3----------5-------------------------------------------------------|

( Don't rely on anyone )

e|--2-----3----------5-------------------------------------------------------|
B|--3-----3-----7----5-------------------------------------------------------|
G|--4-----4-----7----6-------------------------------------------------------|
D|--4-----5-----7----7-------------------------------------------------------|
A|--2-----5-----5----7-------------------------------------------------------|
E|--------3----------5-------------------------------------------------------|


CHORUS repeats  Rhythm guitar 

( dont believe in number one)

e|--2-----3----------5-------------------------------------------------------|
B|--3-----3-----7----5-------------------------------------------------------|
G|--4-----4-----7----6-------------------------------------------------------|
D|--4-----5-----7----7-------------------------------------------------------|
A|--2-----5-----5----7-------------------------------------------------------|
E|--------3----------5-------------------------------------------------------|

( Don't rely on anyone )

e|--2-----3----------5-------------------------------------------------------|
B|--3-----3-----7----5-------------------------------------------------------|
G|--4-----4-----7----6-------------------------------------------------------|
D|--4-----5-----7----7-------------------------------------------------------|
A|--2-----5-----5----7-------------------------------------------------------|
E|--------3----------5-------------------------------------------------------|


( dont believe in number one)

e|--2-----3----------5-------------------------------------------------------|
B|--3-----3-----7----5-------------------------------------------------------|
G|--4-----4-----7----6-------------------------------------------------------|
D|--4-----5-----7----7-------------------------------------------------------|
A|--2-----5-----5----7-------------------------------------------------------|
E|--------3----------5-------------------------------------------------------|

( Don't rely on anyone )

e|--2-----3----------5-------------------------------------------------------|
B|--3-----3-----7----5-------------------------------------------------------|
G|--4-----4-----7----6-------------------------------------------------------|
D|--4-----5-----7----7-------------------------------------------------------|
A|--2-----5-----5----7-------------------------------------------------------|
E|--------3----------5-------------------------------------------------------|

END
vragen: kristof_reynders@msn.com
************************************

| /   slide up
| \   slide down
| h   hammer-on
| p   pull-off
| ~   vibrato
| +   harmonic
| x   Mute note
| b   Bend
| pb  Pre-bend
| br  Bend release
| pbr Pre-bend release
| brb Bend release bend

************************************
Добавлено: 23.06.2013
Другие материалы по этой песне:

Страница создана 23.06.2013
http://primanota.ru/customs/you-chords.htm
Привет, Гость.
Предлагаем пройти революционный курс по гитаре.
Подарок от PrimaNota.Ru, забирай!