PrimaNota.ru - самый крупный в мире бесплатный архив песенных текстов, аккордов, табулатур и нот


Customs - Rex - таба, видео

Регистрация Запомнить меня
Войти через:  Facebook Google Twitter Vk Yandex Mail.ru

Customs - Rex - таба, видео

Печатать
Просмотров: 187
Уроки эстрадного вокала в Санкт-Петербурге
Titel: Rex
Artiest: Customs
Album: enter the characters

Tabbed by: diskwriter


/* LEGEND */

h : Hammer on
p : Pull off
/ : Slide to (up)
\ : Slide to (down)
m : Muted note
( ): optional
~ : let ring
br: Bend and release

Intro: Clean, reverb

e |-----------------------------------------------|
b |-----------------------------------------------|
g |-----------------------------------------------|     Repeat 3x, then
d |------5-5-----5-5------------------------------|
a |--7-7-----7-7----------------------------------|
e |------------------0m-0m-0m-0m-0m-0m-0m-0m------|

e |----------------------|
b |----------------------|
g |----------------------|
d |------5-5-----5-5-----|
a |--7-7-----7-7---------|
e |------------------0m--|

Verse: Clean, reverb

e |-----------------------------------------------|
b |-----------------------------------------------|
g |-----------------------------------------------|     Repeat 4x, then
d |------5-5-----5-5------------------------------|
a |--7-7-----7-7----------------------------------|
e |------------------0m-0m-0m-0m-0m-0m-0m-0m------|

// First time.
e |--------------------------------------------------------------------|
b |--------------------------------------------------------------------|
g |--------------------------------------------------------------------|  Repeat
d |--2-2-----2-2-----------------------2-2-----2-2---------------------|
a |------3-3-----3-3--2-2-----2-2----------3-3-----3-3-----------------|
e |-----------------------0-0-----0-0------------------2-2-3-3-5-5-7-7-|

//Second Time
e |---------------------------------------------------------------------|
b |---------------------------------------------------------------------|
g |---------------------------------------------------------------------|
d |--2-2-----2-2-----------------------2-2-----2-2----------------------|
a |------3-3-----3-3--2-2-----2-2----------3-3-----3-3------------------|
e |-----------------------0-0-----0-0------------------2-2-3-3-5-5-7-7--|

e |-----------------------------------|
b |-----------------------------------|
g |-----------------------------------|     Into the Chorus
d |-----------------------------------|
a |-----------------------------------|
e |--0-0-0-0-0-0-0-0-0-0-0-0-0-0-0-0--|

1st Chorus: Light distortion

e |-----------------------------------------------------|
b |-----------------------------------------------------|
g |--9----7----5----2---------7----11---9---------------|
d |--9----7----5----2----2----7----11---9---------------|
a |--7----5----3----0----2----5----9----7---------------|
e |----------------------0-------------------0-0-0-0-0--|

2nd Chorus: Light distortion   (Repeat 2x.)

e |----------------------------------------------------------------------------------------|
b |----------------------------------------------------------------------------------------|
g |--9----7----5----2-------------------------------------9--------------------------------|
d |--9----7----5----2----2--------------------------------9--------------------------------|
a |--7----5----3----0----2--------------------------------7--------------------------------|
e |----------------------0-0-0-0-0-0-0-0-0-0-0-0-0-0-0-0--0-0-0-0-0-0-0-0-0-0-0-0-0-0-0-0--|

Interlude: Light distortion

e |------------------------------------|
b |------------------------------------|
g |---------------------------2-2-2-2--|     repeat 2x, then
d |----------2-2-2-2--5-5-5-5----------|
a |--3-3-3-3---------------------------|
e |------------------------------------|

e |-----------------------------------|
b |-----------------------------------|
g |-----------------------------------|     Then
d |--2-2-2-2---------2-2-2-2----------|
a |----------3-3-3-3---------3-3-3-3--|
e |-----------------------------------|

e |------------------------------------|
b |------------------------------------|
g |---------------------------2-2-2-2--|     repeat 3x, then
d |----------2-2-2-2--5-5-5-5----------|
a |--3-3-3-3---------------------------|
e |------------------------------------|

e |-----------------------------------|
b |-----------------------------------|
g |-----------------------------------|
d |-----------------------------------|
a |-----------------------------------|
e |--0-0-0-0-0-0-0-0-0-0-0-0-0-0-0-0--|

e |-------------------------------------------------------------------------|
b |-------------------------------------------------------------------------|
g |--99999999-77777777-55555555-22222222------------------------------------|2x, then
d |--99999999-77777777-55555555-22222222-2222222222222222-2222222222222222--|
a |--77777777-55555555-33333333-00000000-2222222222222222-2222222222222222--|
e |--------------------------------------0000000000000000-0000000000000000--|

e |-------------------|
b |-------------------|
g |-------------------|   Into the chorus
d |-------------------|
a |-------------------|
e |--2-2-3-3-5-5-7-7--|

Outro: Clean, reverb

e |-----------------------------------------------|
b |-----------------------------------------------|
g |-----------------------------------------------|     Repeat 3x, then
d |------5-5-----5-5------------------------------|
a |--7-7-----7-7----------------------------------|
e |------------------0m-0m-0m-0m-0m-0m-0m-0m------|

e |----------------------|
b |----------------------|
g |----------------------|
d |------5-5-----5-5-----|
a |--7-7-----7-7---------|
e |------------------0m--|
Добавлено: 20.04.2012
Другие материалы по этой песне:

Страница создана 20.04.2012
http://primanota.ru/customs/rex-chords.htm
Привет, Гость.
Предлагаем пройти революционный курс по гитаре.
Подарок от PrimaNota.Ru, забирай!