PrimaNota.ru - самый крупный в мире бесплатный архив песенных текстов, аккордов, табулатур и нот


Curtis Mayfield - Little Child Running Wild - бас-таба, видео

Регистрация Запомнить меня
Войти через:  Facebook Google Twitter Vk Yandex Mail.ru

Curtis Mayfield - Little Child Running Wild - бас-таба, видео

Печатать
Просмотров: 57
Уроки эстрадного вокала в Санкт-Петербурге
-------------------------------------------------------------------------------
                   Little Child Running Wild - Curtis Mayfield
-------------------------------------------------------------------------------
Tabbed by: istarii
E-mail: thompson.luke@email.com

Tuning: Standard


  Intro
G|-------------------------|-------------------------|
D|-------------------------|-------------------------|
A|-------------------------|-------------------------|
E|-2-----------------------|-2-----------------------|

G|-------------------------|-------------------------|
D|---------------0-2--2h4--|---------------0-2--2h4--|
A|-----0---2--4------------|-----0---2--4------------|
E|-2-----------------------|-2-----------------------|

G|-------------------------|-------------------------|
D|---------------0-2--2h4--|---------------0-2--2h4--|
A|-----0---2--4------------|-----0---2--4------------|
E|-2-----------------------|-2-----------------------|


  Verse 1, 2 and 3
G|-------------------------|-------------------------|
D|---------------0-2--2h4--|---------------0-2--2h4--|
A|-----0---2--4------------|-----0---2--4------------|
E|-2-----------------------|-2-----------------------|


G|------------4h6--4-2-----|-------------------------|
D|-----0---4-----------4-2-|---------------0-2--2h4--|
A|-2-----------------------|-----0---2--4------------|
E|-------------------------|-2-----------------------|


G|-------------------------|-------------------------|
D|---------------0-2--2h4--|---------------0-2--2h4--|
A|-----0---2--4------------|-----0---2--4------------|
E|-2-----------------------|-2-----------------------|


G|------------4h6--4-2-----|-------------------------|
D|-----0---4-----------4-2-|---------------0-2--2h4--|
A|-2-----------------------|-----0---2--4------------|
E|-------------------------|-2-----------------------|


  Chorus 1 and 2
G|-------------------------|-------------------------|
D|-4-4-------4-------------|-4-4-------4-------------|
A|-----4-4-4---4--4-4-4-4-4|-----4-4-4---4--4-4-4-4-4|
E|-------------------------|-------------------------|

G|-------------------------|-------------------------------|
D|-4-4-------4-------------|-4-4-------4-------------------|
A|-----4-4-4---4--4-4-4-4-4|-----4-4-4---4--4-4---0-2-4p2p0|
E|-------------------------|--------------------2----------|


  Sax Solo 1, 2 and 3
G|-------------------------|-------------------------|
D|---------------0-2--2h4--|---------------0-2--2h4--|
A|-----0---2--4------------|-----0---2--4------------|
E|-2-----------------------|-2-----------------------|

G|------------4h6--4-2-----|-------------------------|
D|-----0---4-----------4-2-|---------------0-2--2h4--|
A|-2-----------------------|-----0---2--4------------|
E|-------------------------|-2-----------------------|


  Chorus 3
G|-------------------------|-------------------------|
D|-4-4-------4-------------|-4-4-------4-------------|
A|-----4-4-4---4--4-4-4-4-4|-----4-4-4---4--4-4-4-4-4|
E|-------------------------|-------------------------|

G|-------------------------|-------------------------|
D|-4-4-------4-------------|-4-4-------4-------------|
A|-----4-4-4---4--4-4-4-4-4|-----4-4-4---4--4-4-4-4-4|
E|-------------------------|-------------------------|

G|-------------------------|-------------------------|
D|-4-4-------4-------------|-4-4-------4-------------|
A|-----4-4-4---4--4-4---0-2|-----4-4-4---4--4-4-4-2-0|
E|--------------------2----|-------------------------|

G|-------------------------|-------------------------|
D|-4-4-------4-4-----------|-4-4-------4-4-----------|
A|-----4-4-4-----4--4-4-4-4|-----4-4-4-----4--4-4-4-4|
E|-------------------------|-------------------------|

  Outro
G|-------------------------|-------------------------|
D|-------------------------|-------------------------|
A|-2-----------------------|-2-----------------------|
E|-----------2-------------|-----------2-------------|

G|-------------------------|-------------------------|
D|-------------------------|-------------------------|
A|-2-----------------------|-2-----------------------|
E|-----------4-------------|-----------2-------------|



| /  slide up
| \  slide down
| h  hammer-on
| p  pull-off
| ~  vibrato
| +  harmonic
| x  Mute note
===============================================================================
Добавлено: 04.11.2015
Вам также может быть интересно:
Другие материалы по этой песне:
  • Аккорды и текст

Страница создана 04.11.2015
http://primanota.ru/curtis-mayfield/little-child-running-wild-chords.htm
Привет, Гость.
Предлагаем пройти революционный курс по гитаре.
Подарок от PrimaNota.Ru, забирай!