PrimaNota.ru - самый крупный в мире бесплатный архив песенных текстов, аккордов, табулатур и нот


Curtis Mayfield - Freddies Dead - текст песни, таба, бас-таба, видео

Регистрация Запомнить меня
Войти через:  Facebook Google Twitter Vk Yandex Mail.ru

Curtis Mayfield - Freddies Dead - текст песни, таба, бас-таба, видео

Печатать
Просмотров: 164
Авторы музыки: Curtis Mayfield
Авторы текста: Curtis Mayfield
-------------------------------------------------------------------------------
                             FREDDIE'S DEAD - CURTIS MAYFIELD
-------------------------------------------------------------------------------
Tabbed by: Ignacio Mendez-Nunez
E-mail: ignacio.mendeznunez@gmail.com

Tuning: Standard

Intro
e|---------------------------------------------------------------------------|
B|---------------------------------------------------------------------------|
G|---------------------------------------------------------------------------|
D|-6-6---4---4---------------------------------------------------------------| x 3
A|---------7---7--4-----4-4-4------------------------------------------------|
E|------------------(7)------------------------------------------------------|

Main Riff Guitar
e|---------------------------------------------------------------------------|
B|---------------------------------------------------------------------------|
G|---------------------------------------------------------------------------|
D|--------2-----------2----------2-------------------------------------------|
A|--2--4--------2--4-------2--4------2--4--2---4-----------------------------|
E|-------------------------------------------4-------------------------------|

Rhythm Guitar (with wah-wah)
e|---------------------------------------------------------------------------|
B|--7-------9------7-------------7----------9--------7-----------------------|
G|--7-------9------7-------------7----------9--------7-----------------------|
D|--7-------9------7-------------7----------9--------7-----------------------|
A|---------------------------------------------------------------------------|
E|---------------------------------------------------------------------------|

Chorus @0:47
    C#m7(helps when playing string part as well)
e|---------------------------------------------------------------------------|
B|---9-9--10-12-9-------9-9--10-12--9----------------------------------------|
G|---9-9--------9-9-----9-9---------9----------------------------------------|
D|---9-9--------9--7----9-9---------9---/6--4----4--------6--4---4-----------|
A|---9-9--------9-------9-9---------9----------7---7--4--------7---7-4-------|
E|---------------------------------------------------------------------------|

@2:18 Just move up a half step for 4 repetitions of the Verse
e|---------------------------------------------------------------------------|
B|---------------------------------------------------------------------------|
G|---------------------------------------------------------------------------|
D|--------3-----------3----------3-------------------------------------------|
A|--3--5--------3--5-------3--5------3--5--3---3-----------------------------|
E|-------------------------------------------5-------------------------------|


************************************

| /   slide up
| \   slide down
| h   hammer-on
| p   pull-off
| ~   vibrato
| +   harmonic
| x   Mute note
| b   Bend
| pb  Pre-bend
| br  Bend release
| pbr Pre-bend release
| brb Bend release bend

************************************
Добавлено: 04.11.2015
Другие материалы по этой песне:

Страница создана 11.03.2012
http://primanota.ru/curtis-mayfield/freddies-dead-chords.htm
Привет, Гость.
Предлагаем пройти революционный курс по гитаре.
Подарок от PrimaNota.Ru, забирай!