PrimaNota.ru - самый крупный в мире бесплатный архив песенных текстов, аккордов, табулатур и нот


Cursive - The Martyr - текст песни, бас-таба, видео

Регистрация Запомнить меня
Войти через:  Facebook Google Twitter Vk Yandex Mail.ru

Cursive - The Martyr - текст песни, бас-таба, видео

Печатать
Просмотров: 139
The Martyr by Cursive.



Intro/Verse

G|------------------------------------------------------------------|
D|------------------------------------------------------------------|
A|------------------------5555555---555777--------------------------|
E|--3333333---333333666655----------------888888--------------------| x7

8th time:

G|------------------------------------------------------------------|
D|------------------------------------------------------------------|
A|------------------------5555555---555777--------------------------|
E|--3333333---333333666655----------------888888-6~-----------------| 
                                                  "Cry....."

       

Chorus: 1:15
 
G|------------------------------------------------------------------|
D|------------------------------------------------------------------|
A|-----------3333333---555-000-11-3333-555-000-11-3333--------------|
E|-1111111----------------------------------------------------------| x2

G|------------------------------------------------------------------|
D|------------------------------------------------------------------|
A|------------------------------------------------------------------|
E|--3333333--3333333--3333333--3333333------------------------------|  



2nd Verse

G|------------------------------------------------------------------|
D|------------------------------------------------------------------|
A|------------------------5555555---555777--------------------------|
E|--3333333---333333666655----------------888888--------------------| x2



Verse changes rhythm: 2:03

G|------------------------------------------------------------------|
D|------------------------------------------------------------------|
A|-------------------------555555555555555555777--------------------|
E|-333333333333333333666655---------------------888888--------------|  

G|------------------------------------------------------------------|
D|------------------------------------------------------------------|
A|-------------------------55555555555555-5-5-5-5-5-5--5~5~5~5~-----|
E|-333333333333333333666655-----------------------------------------|

G|------------------------------------------------------------------|
D|------------------------------------------------------------------|
A|------------------------------------------------------------------|
E|--3333333--3333333--3333333--3333333------------------------------| 

Rhythm changes again: 2:38

G|---------------------------------------------------|
D|---------------------------------------------------|
A|--------------555777-------------------------------|
E|--333666555555------888888-------------------------| x3

4th time: 

G|---------------------------------------------------|
D|---------------------------------------------------|
A|---------------------------------------------------|
E|--333666555555-------------------------------------| 


Chorus

G|------------------------------------------------------------------|
D|------------------------------------------------------------------|
A|-----------3333333---555-000-11-3333-555-000-11-3333--------------|
E|-1111111----------------------------------------------------------| x2

G|------------------------------|
D|------------------------------|
A|--------3-333-5---------------|
E|-1-1111-----------------------| x2



Pre-ending

G|----------------------------------------|
D|----------------------------------------|
A|----------------------------------------|
E|-6-6-4-6-6-4-6/8-8-8-8-8-8-8-8----------| x4
             "The Martyr....The Martyr..."


End with this riff:

G|---------------------------------------------------|
D|---------------------------------------------------|
A|--------------555777-------------------------------|
E|--333666555555------888888-------------------------| x4
                                     "oh...."



This took me a while.
I hope you like it.
Listen closely to song for timing of riffs.
I'm pretty sure its really accurate.
Enjoi.







Добавлено: 04.03.2012
Другие материалы по этой песне:

Страница создана 28.02.2012
http://primanota.ru/cursive/the-martyr-chords.htm
Привет, Гость.
Предлагаем пройти революционный курс по гитаре.
Подарок от PrimaNota.Ru, забирай!