PrimaNota.ru - самый крупный в мире бесплатный архив песенных текстов, аккордов, табулатур и нот


Cursive - Tempest - текст песни, бас-таба, видео

Регистрация Запомнить меня
Войти через:  Facebook Google Twitter Vk Yandex Mail.ru

Cursive - Tempest - текст песни, бас-таба, видео

Печатать
Просмотров: 123
Standard Tuning

G-----------------|
D-----------------|
A-5-5--8-8--------| x10
E-----------5/3-3-|

G--------------------|
D--------------------|
A--------------------| x1
E-5-5--5-5--5-5--5-5-|

G---------------|
D---------------|
A-8/5-----------| x8
E-----5h6-1/3-3-|

G-----------------|
D-----------------|
A-5-5--8-8--------| x8
E-----------5/3-3-|

G--------------------|
D--------------------|
A--------------------| x1
E-5-5--5-5--5-5--5-5-|

G---------------|
D---------------|
A-8/5-----------| x8
E-----5h6-1/3-3-|

G----------------|
D----------------|
A----------------| x1
E-5-5--5-5--3--3-|

G-----------------|
D-----------------|
A-5-5--8-8--------| x8
E-----------5/3-3-|

G----------------|
D----------------|
A----------------| x3
E-5-5--5-5--3--3-|

G---------------------|
D---------------------|
A---------------------| x1
E-3--3--333-333--3--3-|

G----------------|
D----------------|
A-10/7-----------| x8
E------7h8-3/5-5-|

G----------------|
D----------------|
A----------------| x4
E-7-7--7-7--5--5-|

/ = slide
h = hammer on
Добавлено: 28.06.2012
Другие материалы по этой песне:

Страница создана 09.04.2012
http://primanota.ru/cursive/tempest-chords.htm
Привет, Гость.
Предлагаем пройти революционный курс по гитаре.
Подарок от PrimaNota.Ru, забирай!