PrimaNota.ru - самый крупный в мире бесплатный архив песенных текстов, аккордов, табулатур и нот


Cursive - Rise Up!! Rise Up!! - текст песни, таба, видео

Регистрация Запомнить меня
Войти через:  Facebook Google Twitter Vk Yandex Mail.ru

Cursive - Rise Up!! Rise Up!! - текст песни, таба, видео

Печатать
Просмотров: 103
Intro
|-----------------------------|
|-----------------------------|
|-----------------------------|
|-13--13--13--13--12-12-12-12-|
|-13--13--13--13--12-12-12-12-|
|-13--13--13--13--12-12-12-12-|

Verse (Dear Preacher…)
|-------------------------------------------------------------|
|-------------------------------------------------------------|
|-------------------------------------------------------------|
|-10-----3-----8-----4-----10-----3-----8-----6-----4----3----|
|-10-x8--3-x8--8-x8--4-x8--10-x8--3-x8--8-x8--6-x8--4-x8-3-x8-|
|-10-----3-----8-----4-----10-----3-----8-----6-----4----3----|

Pre-Chrous (Please forgive me…)
|-----------------------------------------------|
|-----------------------------------------------|
|-----------------------------------------------|
|-8-----6-----4----3----8-----6-----3----4------|
|-8-x8--6-x8--4-x8-3-x8-8-x8--6-x8--3-x8-4-x16--|
|-8-----6-----4----3----8-----6-----3----4------|

Chorus
|------------------------------------------------|
|------------------------------------------------|
|------------------------------------------------|
|-1--1--1--1--3-3-3-3--4--4--4--4--6-6-6-6--8----|
|-1--1--1--1--3-3-3-3--4--4--4--4--6-6-6-6--8-x8-|
|-1--1--1--1--3-3-3-3--4--4--4--4--6-6-6-6--8----|

Chorus
|-------------------------------------------------------|
|-------------------------------------------------------|
|-------------------------------------------------------|
|-4--4--4--4--3-3-3-3--8----13--13--13--13--12-12-12-12-|
|-4--4--4--4--3-3-3-3--8-x8-13--13--13--13--12-12-12-12-|
|-4--4--4--4--3-3-3-3--8----13--13--13--13--12-12-12-12-|

Verse II
|-------------------------------------------------------------|
|-------------------------------------------------------------|
|-------------------------------------------------------------|
|-10-----3-----8-----4-----10-----3-----8-----6-----4----3----|
|-10-x8--3-x8--8-x8--4-x8--10-x8--3-x8--8-x8--6-x8--4-x8-3-x8-|
|-10-----3-----8-----4-----10-----3-----8-----6-----4----3----|

Pre-Chorus II
|--------------------------------------------------------------|
|--------------------------------------------------------------|
|--------------------------------------------------------------|
|-X-----6-----4----3----8-----6-----3----4-----3----4-----3----|
|-X-x8--6-x8--4-x8-3-x8-8-x8--6-x8--3-x8-4-x8--3-x8-4-x8--3-x8-|
|-X-----6-----4----3----8-----6-----3----4-----3----4-----3----|

Verse III
|--------------------------------------------------------------|
|--------------------------------------------------------------|
|--------------------------------------------------------------|
|-10-----3-----8-----4-----10-----3-----8-----6-----4----3-----|
|-10-x6--3-x6--8-x8--4-x8--10-x8--3-x8--8-x8--6-x8--4-x8-3-x12-|
|-10-----3-----8-----4-----10-----3-----8-----6-----4----3-----|

Chorus II
|-------------------------------------------------------------------|
|-------------------------------------------------------------------|
|-------------------------------------------------------------------|
|-1--1--1--1--3-3-3-3--4--4--4--4--6-6-6-6--8---8---8---8--/--4-----|
|-1--1--1--1--3-3-3-3--4--4--4--4--6-6-6-6--8---8---8---8--/--4-x16-|
|-1--1--1--1--3-3-3-3--4--4--4--4--6-6-6-6--8---8---8---8--/--4-----|

Chorus II
|------------------------------------------------|
|------------------------------------------------|
|------------------------------------------------|
|-1--1--1--1--3-3-3-3--4--4--4--4--6-6-6-6--8~---|
|-1--1--1--1--3-3-3-3--4--4--4--4--6-6-6-6--8~---|
|-1--1--1--1--3-3-3-3--4--4--4--4--6-6-6-6--8~---|

Pete D.
Добавлено: 10.08.2013
Другие материалы по этой песне:
  • Аккорды и текст

Страница создана 27.05.2012
http://primanota.ru/cursive/rise-up-rise-up-chords.htm
Привет, Гость.
Предлагаем пройти революционный курс по гитаре.
Подарок от PrimaNota.Ru, забирай!