PrimaNota.ru - самый крупный в мире бесплатный архив песенных текстов, аккордов, табулатур и нот


Cursive - Night I Lost The Will To Fight - текст песни, таба, бас-таба, видео

Регистрация Запомнить меня
Войти через:  Facebook Google Twitter Vk Yandex Mail.ru

Cursive - Night I Lost The Will To Fight - текст песни, таба, бас-таба, видео

Печатать
Просмотров: 152
The Night I Lost The Will To Fight

Guitars tuned down 1 step: DGCFAD

Guitar I

d|-------------------|
A|-------------------|
F|--4-4--4--6--------|
C|-------------7--4--|
G|-------------------|
D|-------------------|


Play 4 times

d|----------------------------------------------------|
A|----------------------------------------------------|
F|6---------6---------6---------6----4-4--4--6--------|
C|------4---------4---------4-------------------7--4--|
G|---7---------7---------7---------7------------------|
D|----------------------------------------------------|

while that is going on:

Guitar II

1st and 2nd time          3rd and 4th time
d|-------------------------|--------------------------|
A|-------------------------|--------------------------|
F|-------------------------|--------------------------|
C|-------------------------|-6-(softly, let ring)-----|
G|-7-(softly, let ring)----|--------------------------|
D|-------------------------|--------------------------|

then this part:

Guitar I plays one of these (listen to see where they go):

d|--------------------| d|--------------------|
A|--------------------| A|--------------------|
F|-4-4--4--6--------6-| F|-4-4--4-----4--6----|
C|-------------7--4---| C|---------7--------4-|
G|--------------------| G|--------------------|
D|--------------------| D|--------------------|

d|--------------------| d|--------------------|
A|--------------------| A|--------------------|
F|-4-4--4--6--7--4--6-| F|-4-4--4-------------|
C|--------------------| C|---------7-----5--4-|
G|--------------------| G|------------7-------|
D|--------------------| D|--------------------|

and then this:

d|---------------------------------------------|
A|---------------------------------------------|
F|---------------------------------------------|
C|--4--4--------6--6-(2--2)-7--7---------------|
G|--2--2-(2--2)-4--4--0--0--5--5---------------|
D|--------0--0---------------------------------|

while Guitar II plays some of these (listen to see where):

d|---------------------------------------------|
A|---------------------------------------------|
F|----------------------(2--2--2)--------------|-optional
C|-4-4--4----4--5--4--7--4--4--4---------------|
G|---------7-----------------------------------|
D|---------------------------------------------|

d|---------------------------------------------|
A|---------------------------------------------|
F|---------------------------------------------|
C|-4-4-4-4-4-4-4-4-4-4-4-4-4-4-4-4-5-4-4-4-4-4-|
G|---------------------------------------------|
D|---------------------------------------------|

d|---------------------------------------------|
A|---------------------------------------------|
F|-4-4--4----4--5--4----(2--2--2)--------------|
C|---------7----------7--4--4--4---------------|
G|---------------------------------------------|
D|---------------------------------------------|

d|---------------------------------------------|
A|---------------------------------------------|
F|-4-4-4-4-4-4-4-4-4-4-4-4-4-4-4-4-2-4-4-4-4---|
C|---------------------------------------------|
G|---------------------------------------------|
D|---------------------------------------------|

Then:

 Guitar I:
d|----------------------------------------------------|
A|----------------------------------------------------|
F|6---------6---------6---------6--------6--------6---|
C|------4---------4---------4---------4--------4------|
G|---7---------7---------7---------7--------7---------|
D|----------------------------------------------------|
 "The night has fallen..."

 Guitar I repeats this:
d|----------------------------------------------------|
A|----------------------------------------------------|
F|6---------6---------6---------6----4-4--4--6--------|
C|------4---------4---------4-------------------7--4--|
G|---7---------7---------7---------7------------------|
D|----------------------------------------------------|
 "I need a catalyst..."

 And Guitar II plays this:
d|-----------------------------------------------------------------|
A|-5--5---5--5---5--5---5--5---5----3--5---3--5---5--5---5--5---5--|
F|-6--6---6--6---6--6---6--6--(6)---4--6---4--6---6--6---6--6--(6)-|
C|-----------------------------------------------------------------|
G|-----------------------------------------------------------------|
D|-----------------------------------------------------------------|

d|-----------------------------------------------------------------|
A|-------------------------10-9----------------12-12--15-15-15-15--|
F|-----4-----4------------------11-9-11/12\11--11-11--11-11-11-11--|
C|--6-----6-----6/11---11------------------------------------------|
G|-----------------------------------------------------------------|
D|-----------------------------------------------------------------|

Then:
 Play 3 times...              ...then this.
d|--------------------------| |-------------------|
A|--------------------------| |-------------------|
F|-4--4--4--4--4--4--4--4-4-| |--4-4--4--6--------|
C|--------------------------| |-------------7--4--|
G|--------------------------| |-------------------|
D|--------------------------| |-------------------|

Then things sort of repeat, after which there is...

d|-----------|
A|-----------|
F|-4-4-4-4-4-|
C|-4-4-4-4-4-|
G|-2-2-2-2-2-|
D|-----------|

...and a pause ("Icicles hung down...") back into "I need a catalyst".

Guitar II plays the same thing as before, but Guitar I plays:

 Play 3 times then...
d|---------------------------9--9--9--9----|
A|-10-10---9--10----9--------9--9--9--9----|
F|-11-11--11--11---11-11----11-11-11-11----|
C|-----------------------------------------|
G|-----------------------------------------|
D|-----------------------------------------|

 ...this.
d|-------9------9------9------9--9---9---9-|
A|----9------9------9------9-----9---9---9-|
F|-11-----11-----11-----11------11--11--11-|
C|-----------------------------------------|
G|-----------------------------------------|
D|-----------------------------------------|

 Play 3 times...
d|-----------------------------------| |--------------------------------|
A|-----------------------------------| |--------------------------------|
F|-11--11--11--11--11--11--11--11-11-| |-11-----------------------------|
C|-----------------------------------| |--------------------------------|
G|-----------------------------------| |--------------------------------|
D|-----------------------------------| |--------------------------------|
                                            "I lost the will to fight"

 Guitar I:
d|-------------------------------------------------------------------------|
A|---------------------------------*4*---------------------------------*4*-|
F|------------------------------*4*---------------------------------*4*----|
C|-4-4-4-4-4-4-4-4-4-4-4-4-4-*4*-------4-4-4-4-4-4-4-4-4-4-4-4-4-*4*-------|
G|-2-2-2-2-2-2-2-2-2-2-2-2-2-----------5-5-5-5-5-5-5-5-5-5-5-5-5-----------|
D|-------------------------------------------------------------------------|

d|-------------------------------------------------------------------------|
A|-----------------------------------------------------------------*4*-----|
F|--------------------------------------------------------------*4*--------|
C|-2-2-2-2-2-2-2-2-----------------5-5-5-5-5-5-5-5-----------*4*-----------|
G|-4-4-4-4-4-4-4-4-4-4-4-4-4-4-4-4-7-7-7-7-7-7-7-7-4-4-4-4-4---------------|
D|-----------------2-2-2-2-2-2-2-2-----------------2-2-2-2-2---------------|

 Guitar II:
d|---------------------------------------------------------------------------------|
A|---------------------------------------------------------------------------------|
F|-4-4-4-4-4-4-4-4-4-4-4-4-4-4-4-4-11-11-11-11-11-11-11-11-11-12-12-12-12-11-11-11-|
C|---------------------------------------------------------------------------------|
G|-2-2-2-2-2-2-2-2-2-2-2-2-2-2-2-2--9--9--9--9--9--9--9--9--9-10-10-10-10--9--9--9-|
D|---------------------------------------------------------------------------------|

d|------------------------------------------------------------------------|
A|------------------------------------------------------------------------|
F|-9-9-9-9-9-9-9-9-9-9-9-9-9-9-9-9-9-9-9-9-9-9-9-9-9-11-11-11-11-11-11-11-|
C|------------------------------------------------------------------------|
G|-7-7-7-7-7-7-7-7-7-7-7-7-7-7-7-7-7-7-7-7-7-7-7-7-7--9--9--9--9--9--9--9-|
D|------------------------------------------------------------------------|

And then the end:

 Guitar I:
d|-----------------------------------------|
A|---------------------------*4**4*-*4*----|
F|-4-4-4-4-4-4-4-4-4-4-4-4-4-----------*4*-|
C|-----------------------------------------|
G|-2-2-2-2-2-2-2-2-2-2-2-2-2---------------|
D|-----------------------------------------|

 Guitar II:
d|---------------------------------|
A|---------------------------------|
F|-4-4-4-4-4-4-4-4-4-4-4-4-4-4-4-4-|
C|---------------------------------|
G|-2-2-2-2-2-2-2-2-2-2-2-2-2-------|
D|---------------------------------|

Just play that a few times and you're done.
Добавлено: 19.05.2012
Другие материалы по этой песне:
  • Аккорды и текст

Страница создана 19.05.2012
http://primanota.ru/cursive/night-i-lost-the-will-to-fight-chords.htm
Привет, Гость.
Предлагаем пройти революционный курс по гитаре.
Подарок от PrimaNota.Ru, забирай!