PrimaNota.ru - самый крупный в мире бесплатный архив песенных текстов, аккордов, табулатур и нот


Current Swell - Young And Able Live - таба, видео

Регистрация Запомнить меня
Войти через:  Facebook Google Twitter Vk Yandex Mail.ru

Current Swell - Young And Able Live - таба, видео

Печатать
Просмотров: 65
-------------------------------------------------------------------------------
                             YOUNG AND ABLE - CURRENT SWELL
-------------------------------------------------------------------------------

Great song. There are a lot of different versions out there, and I have used some of their content to make this. this is the tab for a live 
version on youtube.
Also, No other versions have the little solo he does, and all the intros are close, but wrong.
The solo may not be perfect, but it should be close enough for you to play it out.

Video of actual guy playing it. THIS IS THE VERSION THE TAB IS FOR.:
http://www.youtube.com/watch?v=Wx7DwbrXeO0
How to play it. Not me, someone better at playing.
https://www.youtube.com/watch?v=nSqwElvaBc0

Song is much easier with a capo on 1st fret. All tabs are written AS IF THERE WAS NO CAPO.
See above how-to video for a suggested strumming pattern.

    F   Bb  C  Dm
E|--1---1-------------|
B|--1---3-------6-----|
G|--2---3---5---7-----|
D|--3---3---5---7-----|
A|--3---1---3---5-----|
E|--1-----------------|

Main Riff/Intro Riff
e|----------------------------------------|
B|----------------------------------------|
G|--------(10)----------------------------|
D|---------10-----------------------------|
A|-8-10s12----12s10---------8-------------|
E|-------------------6-8/10---10p8h10-----|

G-string extra note is optional, sounds a bit better to throw in there sometimes


:START SONG:

Main Riff x2

Main Riff x4 (one per line)
Hey my baby well aint that nice,
Turn a lifestyle into a paradise.
Living on the beach and eating fish everyday,
Sipping from the fruit from the juice that she made and


F                  Bb
She loves me now, why wouldnt she,
F                      Bb
I love my baby and my baby loves me.
F                         Bb
Loves me now, because Im young and able,
F                         Bb
Well, loves me for what I bring to the table.


Main Riff x4 (one per line)
Shes on the top and Im on the low,
Ill take her anywhere that she would want to go,
Let me know if Ive crossed the line,
I said taking it slow is just a waste of our time.

F                  Bb
She loves me now, why wouldnt she,
F                      Bb
I love my baby and my baby loves me.
F                         Bb
Loves me now, because Im young and able,
F                         Bb
Well, loves me for what I bring to the table.

F                     C
Thank you maam, well I adore,
Dm                             Bb
This aint the first time Ive been here before.
F                   C
Getting easier with every task ,
Dm                            Bb
Its not the first time and it wont be the last.
F                   C
Thank you maam for what youve done,
Dm                                    Bb
I know now where Im going cause Ive found just where Im from.
F                   C
Getting easier with every task,
Dm                            Bb
Its not the first time and it wont be the last.

Main Riff x2 as Bridge

Main Riff x8 (one per line)
Everybody wants a piece of the pie,
Its easier now if you justify,
Your home is where you make it, You make it where you live.
You dont get what you want and you dont get what you give.
Coffee in the morning is what she would make and
In the afternoon you know were feeling the break,
You know were feeling the break, you know were feeling the break.
You dont get what you want but you can get what you take.


F                  Bb
She loves me now, why wouldnt she,
F                      Bb
I love my baby and my baby loves me.
F                        Bb
Loves me now, because Im young and able,
F                         Bb
Well, loves me for what I bring to the table.

F                    C
Thank you maam, well I adore,
Dm                           Bb
This aint the first time Ive been here before.
F                   C
Getting easier with every task ,
Dm                            Bb
Its not the first time and it wont be the last.
F                  C
Thank you maam for what youve done,
Dm                                  Bb
I know now where Im going cause Ive found just where Im from.
F                   C
Getting easier with every task,
Dm                            Bb
Its not the first time and it wont be the last
(Hold the last Dm and Bb, don't strum them)

End Solo
E|------------------------------------------|
B|------------------------------------------|
G|----------------12^----------10-----------|
D|----------10h12------8-10/12----12-10-----|
A|--8-10/12-----------------------------12--| x4, crescendo
E|------------------------------------------|

E|----------------------------------------------------|
B|----------------------------------------------------|
G|---------10--------------5----------3/5--7-x--------|
D|---------10--------------5----------3/5--7-x--------|
A|-8-10/12----12/10--3-5/7---7p5/3--5------5-x--------|
E|----------------------------------------------------|

E|--------------------------------------------------------|
B|--------------------------------------------------------|
G|-----------------------------------------------3/5-7-x--|
D|---------3-5-------------------------5---------3/5-7-x--|
A|---1-3/5-----3---------3-------3-5/7---7p5-3-5-----5-x--|
E|-5-------------5-1-3/5---5p3-5--------------------------|

E|---------------------------------------------------------|
B|---------------------------------------------------------|
G|------------------------10~---------------------3/5-7-x--|
D|---------3--------------10~-----------5/7-------3/5-7-x--|
A|---1-3/5---5-3-/8-10/12-----12--3-5/7-----5/3-5-----5-x--|
E|-5-------------------------------------------------------|

E|-------------------------------------------------------------------------|
B|-------------------------------------------------------------------------|
G|-----------------------------------------------3/5-7-x-------------------|
D|---------3/5-------------------------5---------3/5-7-x-------------------|
A|---1-3/5-----3---------3-------3-5/7---7p5/3-5-----5-x-------------------|
E|---------------5-1-3/5---5-3-5--------------------------5-6--5-6-5-3/1---|

E|------------------------------------------|
B|------------------------------------------|
G|----------------12^----------10-----------|
D|----------10h12------8-10/12----12-10-----|
A|--8-10/12-----------------------------12--| x4, decrescendo
E|------------------------------------------|

E|-----------13---|
B|--------10------|
G|------10--------|
D|----10----------|
A|--8-------------|
E|----------------|
Добавлено: 03.05.2016
Другие материалы по этой песне:
  • Аккорды и текст

Страница создана 03.05.2016
http://primanota.ru/current-swell/young-and-able-live-chords.htm
Привет, Гость.
Предлагаем пройти революционный курс по гитаре.
Подарок от PrimaNota.Ru, забирай!