PrimaNota.ru - самый крупный в мире бесплатный архив песенных текстов, аккордов, табулатур и нот


Current Swell - Greed And The Given - таба, видео

Регистрация Запомнить меня
Войти через:  Facebook Google Twitter Vk Yandex Mail.ru

Current Swell - Greed And The Given - таба, видео

Печатать
Просмотров: 70
-------------------------------------------------------------------------------
                             Greed and the Given - Current Swell
-------------------------------------------------------------------------------
Tabbed by: ppaltieri
E-mail: ppaltieri@hotmail.com

Note: There wasn't any tab around, so after watching their live performance at 
the "Victoria House Concert B", on YouTube, I decided to try it out, and I think 
I got pretty close to what it is. Also, this is the very first tab I make, so I'm 
sorry if it's not how it's supposed to be.


Intro

e|-----2-2---2-2-------------0-0---0-0------------2-2---2-2------------3-3---|
B|-----3-3---3-3-------------2-2---2-2------------3-3---3-3------------3-3---|
G|-----2-2---2-2-2-----------3-3---3-3-3----------4-4---4-4------------4-4---|
D|---0--------------0-2-0-4--4-4---4-4----4-------4-4---4-4----4-2-0---5-5---|
A|---------0-----------------4-4-4-4-4------4-3-2-2-2---2-2-2----------5-5---|
E|---------------------------x-x---x-x----------------2--------------3-3-3---|

e|-----3-x--3-3-x--3-3-x-----------------------------------------------------|
B|-----3-x--3-3-x--3-3-x-----------------------------------------------------|
G|-----4-x--3-3-x--3-3-x-----------------------------------------------------|
D|-----5-x--5-5-x--5-5-x-----------------------------------------------------|
A|-----5-x--5-5-x--5-5-x-----------------------------------------------------|
E|---3-3-x--3-3-x--3-3-x-----------------------------------------------------|

Chords:
D  (X00232)
F# (X44320)
Bm (X24432)
G  (355433)
Gm (355333)

************************************

| /   slide up
| \   slide down
| h   hammer-on
| p   pull-off
| ~   vibrato
| +   harmonic
| x   Mute note
| b   Bend
| pb  Pre-bend
| br  Bend release
| pbr Pre-bend release
| brb Bend release bend

************************************
Добавлено: 20.10.2013
Другие материалы по этой песне:
  • Аккорды и текст

Страница создана 20.10.2013
http://primanota.ru/current-swell/greed-and-the-given-chords.htm
Привет, Гость.
Предлагаем пройти революционный курс по гитаре.
Подарок от PrimaNota.Ru, забирай!