PrimaNota.ru - самый крупный в мире бесплатный архив песенных текстов, аккордов, табулатур и нот


Current Swell - Get Whats Mine - таба, видео

Регистрация Запомнить меня
Войти через:  Facebook Google Twitter Vk Yandex Mail.ru

Current Swell - Get Whats Mine - таба, видео

Печатать
Просмотров: 148
Уроки эстрадного вокала в Санкт-Петербурге
Capo 4

Rhythm

   Am - D7  - F  -   C

e---------2---------------------------------------|
b---1-----1--------1-------1----------------------|
g---2-----2--------2-------0----------------------|
d---2--------------3-------2----------------------|
a-0--------------3--------------------------------|
e-------------------------------------------------|


Melodic lick

e-----3---5--3-----------------------------------|
b-1s3---3--------5--3--3s5---3---1---1-3p1-------|
g-----------------------------------2------2-----|
d------------------------------------------------|
a------------------------------------------------|
e------------------------------------------------|

e---------------3--------------------------------|
b----1--3p1--3s5---5--3--5--3---1---1--3p1-------|
g--2-------------------------------2-------2-----|
d------------------------------------------------|
a------------------------------------------------|
e------------------------------------------------|
Добавлено: 31.03.2012
Другие материалы по этой песне:
  • Аккорды и текст

Страница создана 31.03.2012
http://primanota.ru/current-swell/get-whats-mine-chords.htm
Привет, Гость.
Предлагаем пройти революционный курс по гитаре.
Подарок от PrimaNota.Ru, забирай!