PrimaNota.ru - самый крупный в мире бесплатный архив песенных текстов, аккордов, табулатур и нот


Current Swell - Chasing - аккорды и текст, видео

Регистрация Запомнить меня
Войти через:  Facebook Google Twitter Vk Yandex Mail.ru

Current Swell - Chasing - аккорды и текст, видео

Печатать
Просмотров: 72
Chasing
Current Swell
-------------------------------------------------------------------------------
                             CHASING - Current Swell
-------------------------------------------------------------------------------
TaA#ed by: Lucas
E-mail: dogstlks@gmail.com

Tuning: Standard

The chords change to a seven chord after being struck once, listen to the song to here what I mean and to get
rhythm.

Chords below:

      A#   A#7   D    D7   Gm   Gm7   Eb
e|----1----1----5----5----10----10----11--------------------------------------|
B|----3----3----7----7----11----11----11--------------------------------------|
G|----3----1----7----5----12----10----12--------------------------------------|
D|----3----3----7----7----12----12----13--------------------------------------|
A|----1----1----5----5----10----10----x---------------------------------------|
E|----x----x----x----x----x-----x-----x---------------------------------------|

A# A#7                     D  D7
Got to get myself in order
         Gm Gm7  
all this time that I'm wasting
        Eb                                A# A#7
now the colours are changing in the trees
                           D  D7
and these days are getting shorter
         Gm Gm7                      Eb                
but I'll leave them behind and set myself out to find 

so I leave

A# 
And I will pack my things
             D 
getting them ready to bring
        Gm 
now I'm on my way
             Eb
because well I can't stay
    A# 
its me now
                  D
see I just got to leave now
                         Gm
better I'll be out on my way now
                             Eb
but I'll see you here in the summer time

but some other time yeah


(Musical break for solo)

A# A#7 - D D7 - Gm Gm7 - Eb


A# A#7                     D D7
Got this burning off my shoulders
        Gm Gm7                 Eb
and I'm where I wanna be and I swear I wont leave now till its time
A# A7                     D D7
cause this waters so much warmer 
    Gm Gm7                           Eb
the day that's its colder will be the day I am over the line

A# 
And I will pack my things
             D 
getting them ready to bring
        Gm 
now I'm on my way
             Eb
because well I can't stay
    A# 
its me now
                  D
see I just got to leave now
                         Gm
better I'll be out on my way now
                             Eb
but I'll see you here in the summer time

but some other time yeah
Добавлено: 24.12.2015
Другие материалы по этой песне:
  • Аккорды и текст

Страница создана 24.12.2015
http://primanota.ru/current-swell/chasing-chords.htm
Привет, Гость.
Предлагаем пройти революционный курс по гитаре.
Подарок от PrimaNota.Ru, забирай!