PrimaNota.ru - самый крупный в мире бесплатный архив песенных текстов, аккордов, табулатур и нот


Current Swell - Brads Song - таба, видео

Регистрация Запомнить меня
Войти через:  Facebook Google Twitter Vk Yandex Mail.ru

Current Swell - Brads Song - таба, видео

Печатать
Просмотров: 131
guitar 1 - Capo 6

x = palm muted
e-------------------------------------------------------------|
b-------------------------------------------------------------|
g---------------------------------------------------2x--------|
d--2x-2x-2x-2x---2x-2x-2x-2x---0x-0x-0x-0x---3x-3x-3x-3x------|
a-3x-3x-3x-3x---0x-0x-0x-0x-----------------------------------|
e-----------------------------3x-3x-3x-3x---1x-1x-1x-1x-------|

and into C - Am - G - F when it picks up.

riff
e----------------------------------------------------------|
b----3s5-3s5-3-1-3-3s5-1-1s3-3-3s5-3-1-1-------------------|
g----------------------------------------5-2--5p2-2-0------|
d----------------------------------------------------------|
a----------------------------------------------------------|
e----------------------------------------------------------|



Guitar 2 Without Capo.

riff
e----------------------------------------------------------|
b----9s11-9s11-9-7-9-9s11-7-7s9-9-9s11-9-7-7--7-4-7p4------|
g-----------------------------------------------------6----|
d----------------------------------------------------------|
a----------------------------------------------------------|
e----------------------------------------------------------|

accompaniment
e-----9---9---9---9----6---6----4---4----------------------|
b---7---7---7---7----4---4----2---2------------------------|
g----------------------------------------------------------|
d----------------------------------------------------------|
a----------------------------------------------------------|
e----------------------------------------------------------|

e-------9-6---9-6-4---9-6-4s2------------------------------|
b------------------------------------7--9-7----------------|
g--------------------------------6h8-----------------------|
d----------------------------------------------------------|
a----------------------------------------------------------|
e----------------------------------------------------------|

and when it picks up:
F# - D#m - C# - B

Enjoy.
Добавлено: 27.03.2012
Другие материалы по этой песне:
  • Аккорды и текст

Страница создана 27.03.2012
http://primanota.ru/current-swell/brads-song-chords.htm
Привет, Гость.
Предлагаем пройти революционный курс по гитаре.
Подарок от PrimaNota.Ru, забирай!