PrimaNota.ru - самый крупный в мире бесплатный архив песенных текстов, аккордов, табулатур и нот


Current Joys - Televisions - таба, видео

Регистрация Запомнить меня
Войти через:  Facebook Google Twitter Vk Yandex Mail.ru

Current Joys - Televisions - таба, видео

Печатать
Просмотров: 152
Уроки эстрадного вокала в Санкт-Петербурге
Current Joys - Televisions
Track 3 from the album "Wild Heart" (2013).

Tabbed by Isaac Murguia, May 2015.
Originally uploaded to Ultimate-Guitar.com
Contact: www.youtube.com/user/Goadiroth

Current Joys was formerly known as Tele/Visions.
Listen here: https://televisionsss.bandcamp.com/album/wild-heart

CAPO on 2nd Fret.

INTRO LEAD: (repeats throughout whole song)
e|----------------------------------|
B|----------------------------------|
G|-9--11--9-11-9--------------------| (not relative to capo)
D|---------------11-9--11---11-9----|
A|-------------------------------12-|
E|----------------------------------| [x2]

CHORUS: (0:11)
e|-0----0----0----(0)----|
B|-0----1----1----(1)----|
G|-0----0----2----(2)----|
D|-2----2----2----(2)----|
A|-2----3----0----(0)----|
E|-0---------------------| [x6]

VERSE:
e|-0--------0--------|
B|-0--------0--------|
G|-0--------0--------|
D|-0--------2--------|
A|-2--------3--------|
E|-3-----------------| [x4]

Repeat CHORUS [x4]
Repeat VERSE [x4]
Repeat CHORUS [x4]
Repeat VERSE [x4]

ENDING CHORD:
e|-0---------|
B|-0---------|
G|-0---------|
D|-0---------|
A|-2---------|
E|-3---------|

End. Please rate. :D
Добавлено: 24.12.2015
Другие материалы по этой песне:
  • Аккорды и текст

Страница создана 24.12.2015
http://primanota.ru/current-joys/televisions-chords.htm
Привет, Гость.
Предлагаем пройти революционный курс по гитаре.
Подарок от PrimaNota.Ru, забирай!