PrimaNota.ru - самый крупный в мире бесплатный архив песенных текстов, аккордов, табулатур и нот


Current Joys - It Followed Me - таба, видео

Регистрация Запомнить меня
Войти через:  Facebook Google Twitter Vk Yandex Mail.ru

Current Joys - It Followed Me - таба, видео

Печатать
Просмотров: 18
Current Joys - It Followed Me
Track 2 from "Alabama (2000 Light Years)" (2015).

Tabbed by Isaac Murguia, November 2015. Help with chords by DON CZARSKI. :)
Originally uploaded to Ultimate-Guitar.com
Contact: www.youtube.com/user/Goadiroth

CAPO on 2nd Fret. Tabbed relative to capo.

This repeats throughout whole song:
  Rhythm
e|-0-----2-----0-----0-----|
B|-0-----3-----2-----2-----|
G|-1-----4-----2-----2-----|
D|-2-----4-----2-----2-----|
A|-2-----2-----0-----0-----|
E|-0-----------------------|
  Lead
e|-------------------------|-------------------------|
B|-------------------------|-------------------------|
G|-----1-----1-----1-----1-|-----4-----4-----4-----4-|
D|---4-----4-----4-----4---|---4-----4-----4-----4---|
A|-2-----2-----2-----2-----|-2-----2-----2-----2-----|
E|-------------------------|-------------------------|

e|-------------------------|-------------------------|
B|-------------------------|-------------------------|
G|-----4-----4-----4-----4-|-----4-----4-----4-----4-|
D|---2-----2-----2-----2---|---2-----2-----2-----2---|
A|-4-----4-----4-----4-----|-4-----4-----4-----4-----|
E|-------------------------|-------------------------|

CHORUS: (1:21) and (2:22)
e|--------------------------|-00000000-00000000-00000000-00000000-|
B|----(x8)---------(x8)-----|-22222222-22222222-22222222-22222222-|
G|-13-13-13-13--11-11-11-11-|-22222222-22222222-22222222-22222222-|
D|-x--x--x--x---x--x--x--x--|-22222222-22222222-22222222-22222222-|
A|-11-11-11-11--9--9--9--9--|-00000000-00000000-00000000-00000000-|
E|--------------------------|-------------------------------------|

I don't want you to talk cuz I know you'll talk for days
I've been running through my thoughts and I almost got away

But it followed me...
But it followed me...

And I've been here for days
And I hope that I don't change

Til it swallows me...
Til it swallows me...

I don't want you to walk cuz I know you'll walk away
It's been harder than I thought, the feelings oh so strange

And I've been here for days
The feeling never fades

It just follows me...
It just follows me...

---

End. Please rate! :D
Добавлено: 23.03.2016
Другие материалы по этой песне:
  • Аккорды и текст

Страница создана 23.03.2016
http://primanota.ru/current-joys/it-followed-me-chords.htm
Привет, Гость.
Предлагаем пройти революционный курс по гитаре.
Подарок от PrimaNota.Ru, забирай!