PrimaNota.ru - самый крупный в мире бесплатный архив песенных текстов, аккордов, табулатур и нот


Current-93 - Thunder Perfect Mind (album) - таба, видео

Регистрация Запомнить меня
Войти через:  Facebook Google Twitter Vk Yandex Mail.ru

Current-93 - Thunder Perfect Mind (album) - таба, видео

Печатать
Просмотров: 86
-----------
A BEGINNING
-----------
Time signature: 4/8
Tempo: ~80 BPM
Key: A minor
Tuning: Standard


  |        |       |        |       |        |       |        |       |
e|--------|5-------7-------|8-------7---5---|3-------5-------|0---------------|
B|5-------|----5-------0---|----0-----------|----0-------0---|----1-------1---|
G|--------|----------------|----------------|----------------|--------2-------|
D|--------|----------------|----------------|----------------|----------------|
A|--------|0---------------|----------------|----------------|0---------------|
E|--------|----------------|8---------------|3---------------|----------------|

    Am               C                G                Am
    |       |        |       |        |       |        |       |        3x
e||-0-----------0---|0-----------0---|--------0-------|--------0--------||
B||-----1-----------|----1-----------|0-----------0---|------------1----||
G||•--------2-------|--------0-------|----0-----------|----2-----------•||
D||•----------------|----------------|----------------|----------------•||
A||-0---------------|3---------------|----------------|0----------------||
E||-----------------|----------------|3---------------|-----------------||

  Am               C                G                Am
  |       |        |       |        |       |        |       |
e|0-----------0---|0-----------0---|--------0-------|0---------------||
B|----1-----------|----1-----------|0-----------0---|1---------------||
G|--------2-------|--------0-------|----0-----------|2---------------||
D|----------------|----------------|----------------|2---------------||
A|0---------------|3---------------|----------------|0---------------||
E|----------------|----------------|3---------------|----------------||


-------------------------------------
THE DESCENT OF LONG SATAN AND BABYLON
-------------------------------------
Time signature: 12/8
Tempo: ~140 BPM
Key: D minor
Tuning: Standard

  Dm                       Am                       Dm                       G
  |   |   |   |   |   |    |   |   |   |   |   |    |   |   |   |   |   |    |   |   |   |   |   |
e|1-----------1-----------|------------0-----------|--------1---1-----------|------------3-----------|
B|----3---3-------3-------|--------1-------1-------|------3---3-----3-------|--------3-------3-------|
G|------2---2---------2---|------2---2---------2---|----2---------------0---|------------------------|
D|0-----------0-----------|----2-------2-----------|0-----------0-----------|------5---5---------5---|
A|------------------------|0-----------------------|------------------------|----5-------5-----------|
E|------------------------|------------------------|------------------------|3-----------------------|

  Dm                      Bb                        G           Am           Dm          Bb
  |   |   |   |   |   |    |   |   |   |   |   |    |   |   |   |   |   |    |   |   |   |   |   |
e|--------1---1-----------|------------1-----------|--------3---0-----------|------------------------|
B|------3---3-----3-------|--------3-------3-------|----------------1-------|------3-------------3---|
G|----2-------------------|------3---3-------------|------------------2-----|----2-------------3-----|
D|0-----------0-----------|----3-------3-----------|------5-----2-------2---|0---------------3-------|
A|--------------------3---|1-------------------0---|----5-------------------|--------3---1-----------|
E|------------------------|------------------------|3-----------------------|------------------------|

  G           Am           Dm                         Dm                       Am
  |   |   |   |   |   |    |   |   |   |   |   |      |   |   |   |   |   |    |   |   |   |   |   |
e|--------3---0-----------|--------1---1-----------||---------1---1-----------|------------0-----------|
B|----------------1-------|------3---3-----3-------||-------3---3-----3-------|--------1-------1-------|
G|------------------2-----|----2-------------------||•----2---------------2---|------2---2---------2---|
D|------5-----2-------2---|0-----------0-----------||•0-----------0-----------|----2-------2-----------|
A|----5-------------------|--------------------0---||-------------------------|0-----------------------|
E|3-----------------------|------------------------||-------------------------|------------------------|

  Dm                       G                        Dm                       Bb
  |   |   |   |   |   |    |   |   |   |   |   |    |   |   |   |   |   |    |   |   |   |   |   |
e|--------1---1-----------|------------3-----------|--------1---1-----------|------------1-----------|
B|------3---3-----3-------|--------3-------3-------|------3---3-----3-------|--------3-------3-------|
G|----2---------------0---|------------------------|----2-------------------|------3---3-------------|
D|0-----------0-----------|------5---5---------5---|0-----------0-----------|----3-------3-----------|
A|------------------------|----5-------5-----------|--------------------3---|1-------------------0---|
E|------------------------|3-----------------------|------------------------|------------------------|

  G           Am           Dm          Bb           G           Am           Dm 
  |   |   |   |   |   |    |   |   |   |   |   |    |   |   |   |   |   |    |   |   |   |   |   |
e|--------3---0-----------|------------------------|--------3---0-----------|--------1---1------------||
B|----------------1-------|------3-------------3---|----------------1-------|------3---3-----3--------||
G|------------------2-----|----2-------------3-----|------------------2-----|----2-------------------•||
D|------5-----2-------2---|0---------------3-------|------5-----2-------2---|0-----------0-----------•||
A|----5-------------------|--------3---1-----------|----5-------------------|--------------------0----||
E|3-----------------------|------------------------|3-----------------------|-------------------------||

    Dm                       Am                       Dm                       G
    |   |   |   |   |   |    |   |   |   |   |   |    |   |   |   |   |   |    |   |   |   |   |   |
e||---------1---1-----1-----|------------0-----0-----|--------1---1-----1-----|------------3-----------|
B||-------3---3---3-----3---|--------1-----1-----1---|------3---3---3-----3---|--------3-------3-------|
G||•----2-----------2-----2-|------2---2-----2-----2-|----2-----------2-----0-|------------------------|
D||•0-----------0-----------|----2-------2-----------|0-----------0-----------|------5---5-------------|
A||-------------------------|0-----------------------|------------------------|----5-------5-------5---|
E||-------------------------|------------------------|------------------------|3-----------------------|

  Dm                       Bb                       G           Am           Dm          Bb
  |   |   |   |   |   |    |   |   |   |   |   |    |   |   |   |   |   |    |   |   |   |   |   |
e|--------1---1-----------|------------1-----------|--------3---0-----------|------------------------|
B|------3---3-----3-------|--------3-------3-------|----------------1-------|------3-------------3---|
G|----2-------------------|------3---3-------------|------------------2-----|----2-------------3-----|
D|0-----------0-----------|----3-------3-----------|------5-----2-------2---|0---------------3-------|
A|--------------------3---|1-------------------0---|----5-------------------|--------3---1-----------|
E|------------------------|------------------------|3-----------------------|------------------------|

  G           Am           Dm                         Dm                       Am
  |   |   |   |   |   |    |   |   |   |   |   |    3x|   |   |   |   |   |    |   |   |   |   |   |
e|--------3---0-----------|--------1---1------------||--------1---1-----------|------------0-----------|
B|----------------1-------|------3---3-----3--------||------3---3-----3-------|--------1-------1-------|
G|------------------2-----|----2-------------------•||----2---------------2---|------2---2---------2---|
D|------5-----2-------2---|0-----------0-----------•||0-----------0-----------|----2-------2-----------|
A|----5-------------------|--------------------0----||------------------------|0-----------------------|
E|3-----------------------|-------------------------||------------------------|------------------------|

  Dm                       G                        Dm                       Bb          
  |   |   |   |   |   |    |   |   |   |   |   |    |   |   |   |   |   |    |   |   |   |   |   |
e|--------1---1-----------|------------3-----------|--------1---1-----------|------------1-----------|
B|------3---3-----3-------|--------3-------3-------|------3---3-----3-------|--------3-------3-------|
G|----2---------------0---|------------------------|----2-------------------|------3---3-------------|
D|0-----------0-----------|------5---5---------5---|0-----------0-----------|----3-------3-----------|
A|------------------------|----5-------5-----------|--------------------3---|1-------------------0---|
E|------------------------|3-----------------------|------------------------|------------------------|

  G           Am           Dm          Bb           G           Am           Dm
  |   |   |   |   |   |    |   |   |   |   |   |    |   |   |   |   |   |    |   |   |   |   |   |
e|--------3---0-----------|------------------------|--------3---0-----------|--------1---1-----------||
B|----------------1-------|------3-------------3---|----------------1-------|------3---3-------------||
G|------------------2-----|----2-------------3-----|------------------2-----|----2-------------------||
D|------5-----2-------2---|0---------------3-------|------5-----2-------2---|0-----------0-----------||
A|----5-------------------|--------3---1-----------|----5-------------------|------------------------||
E|3-----------------------|------------------------|3-----------------------|------------------------||


--------------
A SADNESS SONG
--------------
Time signature: 8/8
Tempo: ~100 BPM
Key: E minor
Tuning: Standard

  Em               Gmaj7            Cmaj7            Em
  |   |   |   |    |   |   |   |    |   |   |   |    |   |   |   |    6x
e|----------------|----------------|----------0-----|-----------------||
B|----------0-----|----------0-----|------0---------|----------0------||
G|------0---------|------0---------|----0-----------|------0---------•||
D|----2-----------|----4-----------|--2-------------|----2-----------•||
A|--2-------------|--2-------------|3---------------|--2--------------||
E|0---------------|3---------------|----------------|0----------------||

   Am               C
   |   |   |   |    |   |   |   |
e||-0---------------|0----------------||
B||-1---------------|1----------------||
G||•2---------------|0---------------•||
D||•2---------------|2---------------•||
A||-0---------------|3----------------||
E||-0---------------|-----------------||

  Em               Gmaj7            Cmaj7            Em
  |   |   |   |    |   |   |   |    |   |   |   |    |   |   |   |    5x
e|----------------|----------------|----------0-----|-----------------||
B|----------0-----|----------0-----|------0---------|----------0------||
G|------0---------|------0---------|----0-----------|------0---------•||
D|----2-----------|----4-----------|--2-------------|----2-----------•||
A|--2-------------|--2-------------|3---------------|--2--------------||
E|0---------------|3---------------|----------------|0----------------||

   Am               C
   |   |   |   |    |   |   |   |
e||-0---------------|0----------------||
B||-1---------------|1----------------||
G||•2---------------|0---------------•||
D||•2---------------|2---------------•||
A||-0---------------|3----------------||
E||-0---------------|-----------------||

  Em               Gmaj7            Cmaj7            Em
  |   |   |   |    |   |   |   |    |   |   |   |    |   |   |   |    4x
e|----------------|----------------|----------0-----|-----------------||
B|----------0-----|----------0-----|------0---------|----------0------||
G|------0---------|------0---------|----0-----------|------0---------•||
D|----2-----------|----4-----------|--2-------------|----2-----------•||
A|--2-------------|--2-------------|3---------------|--2--------------||
E|0---------------|3---------------|----------------|0----------------||

   Am               C
   |   |   |   |    |   |   |   |
e||-0---------------|0----------------||
B||-1---------------|1----------------||
G||•2---------------|0---------------•||
D||•2---------------|2---------------•||
A||-0---------------|3----------------||
E||-0---------------|-----------------||
  Em               Gmaj7            Cmaj7            Em
  |   |   |   |    |   |   |   |    |   |   |   |    |   |   |   |    4x
e|----------------|----------------|----------0-----|-----------------||
B|----------0-----|----------0-----|------0---------|----------0------||
G|------0---------|------0---------|----0-----------|------0---------•||
D|----2-----------|----4-----------|--2-------------|----2-----------•||
A|--2-------------|--2-------------|3---------------|--2--------------||
E|0---------------|3---------------|----------------|0----------------||

   Am               C
   |   |   |   |    |   |   |   |
e||-0---------------|0----------------||
B||-1---------------|1----------------||
G||•2---------------|0---------------•||
D||•2---------------|2---------------•||
A||-0---------------|3----------------||
E||-0---------------|-----------------||

  Em               Gmaj7            Cmaj7            Em
  |   |   |   |    |   |   |   |    |   |   |   |    |   |   |   |
e|----------------|----------------|----------0-----|----------------|
B|----------0-----|----------0-----|------0---------|----------0-----|
G|------0---------|------0---------|----0-----------|------0---------|
D|----2-----------|----4-----------|--2-------------|----2-----------|
A|--2-------------|--2-------------|3---------------|--2-------------|
E|0---------------|3---------------|----------------|0---------------|

  Em               Gmaj7            Cmaj7            Em
  |   |   |   |    |   |   |   |    |   |   |   |    |   |   |   |
e|----------------|----------------|----------0-----|0---------------|
B|----------0-----|----------0-----|------0---------|0---------------|
G|------0---------|------0---------|----0-----------|0---------------|
D|----2-----------|----4-----------|--2-------------|2---------------|
A|--2-------------|--2-------------|3---------------|2---------------|
E|0---------------|3---------------|----------------|0---------------|


----------------------------------
A SONG FOR DOUGLAS AFTER HE'S DEAD
----------------------------------
Time signature: 3/4
Tempo: ~70
Key: A minor
Tuning: Standard

  Am                       Am                       Am
  |       |       |        |       |       |        |       |       |
e|------------------------|------------------------|------------------------|
B|------------------------|1-------0---------------|------------------------|
G|2-------2-----2-2-------|--------------2-2-----0-|2-----------------------|
D|--------2---------------|2-----------------------|------------------------|
A|0---------------0-------|--------0---------------|0-----------------------|
E|------------------------|----------------0-------|------------------------|

  Am           Am           Am 
  |       |       |        |       |       |        |       |       |
e|------------------------|------------------------|------------------------|
B|------------------------|1-------0---------------|------------------------|
G|2-------2-----2-2-------|--------------2-2-----0-|2-----------------------|
D|----2---------------2---|------------2-----------|------------------------|
A|0-----------------0-----|--------0---------------|0-----------------------|
E|--0-------------0-------|----------0-------------|------------------------|

    Am                       F                        Dm                       E
    |       |       |        |       |       |        |       |       |        |       |       |
e||-0-----------0-----------|1-----------1-----------|--------1-----------1---|0-----------0------------||
B||-----1-----------1-------|----1-----------1-------|3-----------3-----------|----0-----------0--------||
G||•--------2-----------2---|--------2-----------2---|----2-----------2-------|--------1-----------1---•||
D||•------------------------|------------------------|0-----------0-----------|------------------------•||
A||-0-----------0-----------|3-----------3-----------|------------------------|2-----------2------------||
E||-------------------------|------------------------|------------------------|-------------------------||

Repeat until the end


-----------------------------------------------
IN THE HEART OF THE WOOD AND WHAT I FOUND THERE
-----------------------------------------------
Time signature: 2/4
Tempo: ~80 BPM
Key: A minor
Tuning: Standard

Intro:
  Am               C                G                Am
  |       |        |       |        |       |        |       |        3x
e|0-----------0---|0-----------0---|--------0-------|--------0--------||
B|----1-----------|----1-----------|0-----------0---|------------1----||
G|--------2-------|--------0-------|----0-----------|----2-----------•||
D|----------------|----------------|----------------|----------------•||
A|0---------------|3---------------|----------------|0----------------||
E|----------------|----------------|3---------------|-----------------||

  Am               C                G                Am
  |       |        |       |        |       |        |       |
e|0-----------0---|0-----------0---|--------0-------|--------0-------||
B|----1-----------|----1-----------|0-----------0---|--------1-------||
G|--------2-------|--------0-------|----0-----------|----2---2-------||
D|----------------|----------------|----------------|--------2-------||
A|0---------------|3---------------|----------------|0-------0-------||
E|----------------|----------------|3---------------|----------------||

       Am           C
In the heart of the wood
      G       Am
In the closed forest
Am                 C
Christ appeared to me
  G        Am
In several forms
 Am            C    G             Am
"One two three four swastika" I'm told
Am               C
On the Cliffs of Moher
 G          Am
I walk with Mary
  Am       C
Behind the eyes
       G            Am
Of his innocence or guile
    Am            C
The young old man talks
G              Am
Of the brittle walls
     Am       C
That held his son
G                 Am
Pinioned pinioned pinioned
Am         C
Mary walks on the Cliffs
G           Am
 But not on waters

A (barre) G (barre) G Am

     Am                 C
Then Christ appeared as wind
G                       Am
Mary runs down from the highwalls
Am                C
Christ appears as flowers
     G            Am
Down longpath she walks
Am                    C
Christ appears as the rubble
     G         Am
That holds the stones
     Am        C
That holds the paths
     G         Am
That holds the feet
       Am            C
To the bones of the earth
   G
Oh if she waits
Am
If she wakes
Am
If she waits
C
If she wakes
G                Am
Christ manifests slowly
       Am          C
As the dust on her eyes
  G               Am
Before she falls again
Am             C
Into fields of sleep
         G               Am
(I would like this anger to dissolve)

A (barre) G (barre) G Am

    Am          C
And I wait for another
 G             Am
Revolution or revelation
   Am               C
It doesn't too much matter
          G            Am
Whether I see blood in wheals
 Am           C
"All shall be well" she said
G
Not for me
    Am
But not for me
    Am              C
The skeleton of the universe
G              Am
Barbed wire of blues and stars
  Am      C
Remains unmoved
         G            Am
When the mother ocean covers me
Am        C
I rush to drown
G         Am
 With her breakers
 Am           C         G
"All shall be well" she said
    Am
She said
              C
"All shall be well"
    G
But not for me
    Am
But not for me


---------------------
MARY WAITS IN SILENCE
---------------------
Time signature: 4/4
Tempo: ~100 BPM
Key: C Lydian
Tuning: Standard

Em G Em

C                  Em  G Em
 I shall return no more
C               Em G Em
 The sea covers me
C                        Am
 To pick gold from the skies
C                    Em         G Em
 I shall wait between the spaces

C                  Em  G Em
 I shall return no more
C            Em   G Em
 Imperium et nihil
C                Am
 The silence has folded
C           Em G Em
 Inside and out

C              Em     G Em
 Mary waits in silence
  C            Em G Em
Imperium nihil est
C             Am
 In the gap between
C                Em      G Em
 His thought and his word

D                 C
 And something is finished
G                 D
 And something is born
C                   Am
 In the place where words cease
C              Em  G Em
 In the moment when

C                        Em G Em
 Actions no longer matter
C               Em
Oh, the sky may darken
C            Am
 The curtain tear
C         Em   G Em
 She shall wait

C                           Em  G Em
 Silver dust falls from her hair
C                 Em  G Em
Waits a span or a time
C                    Am
 Sketches of her life swirl
C           Em            G Em
Around her silence, silent

C                   Em    G Em
 The sounds of her silence
C                   Em   G Em
 The forms that they take
C              Am
 They cover me still
C           Em
 My fingers twist in pain

D          C
 Words are finished
G           D
 And I come swiftly
C          Am
 And with a vengeance
C        Em
 Oh Mary waits in silence


--------------
A SILENCE SONG
--------------
Time signature: 8/8
Tempo: ~120 BPM
Key: E minor
Tuning: Standard

  |   |   |   |    |   |   |   |    |   |   |   |    |   |   |   |    4x
e|------3---------|------0---------|----------------|--3---7---0------||
B|--0-------0-----|----------0-----|------0---------|----0---5--------||
G|----0---4-------|--2-----2-------|----0-----0-----|----------------•||
D|----------------|----5-----------|----------------|----------------•||
A|0---------------|----------------|--2-------------|-----------------||
E|----------------|0---------------|3-------3-------|0----------------||

  |   |   |   |    |   |   |   |    |   |   |   |    |   |   |   |
e|5-----3---0-----|3-----2---------|------0---------|------0---------|
B|--3-------------|----------0-----|----3---3-------|----3---3-------|
G|----4---4-------|----0-----------|----------0---0-|--0-------0---0-|
D|----------------|--2-----2-------|--2-------------|----------------|
A|0---------------|----------------|3-----------3---|----------------|
E|----------------|0---------------|----------------|3-----------0---|

  |   |   |   |    |   |   |   |    |   |   |   |    |   |   |   |
e|5-----3---0-----|3-----2---------|------0---------|------0---------|
B|--3-------------|----------0-----|----3---3-------|----3---3-------|
G|----4---4-------|----0-----------|----------0---0-|--0-------0---0-|
D|----------------|--2-----2-------|--2-------------|----------------|
A|0---------------|----------------|3-----------3---|2-----------2---|
E|----------------|0---------------|----------------|----------------|

  |   |   |   |    |   |   |   |    |   |   |   |    |   |   |   |
e|------3---------|------0---------|----------------|--3---7---0------||
B|--0-------0-----|----------0-----|------0---------|----0---5--------||
G|----0---4-------|--2-----2-------|----0-----0-----|----------------•||
D|----------------|----5-----------|----------------|----------------•||
A|0---------------|----------------|--2-------------|-----------------||
E|----------------|0---------------|3-------3-------|0----------------||

  |   |   |   |    |   |   |   |    |   |   |   |    |   |   |   |
e|5-----3---0-----|3-----2---------|------0---------|------0---------|
B|--3-------------|----------0-----|----3---3-------|----3---3-------|
G|----4---4-------|----0-----------|----------0---0-|--0-------0---0-|
D|----------------|--2-----2-------|--2-------------|----------------|
A|0---------------|----------------|3-----------3---|----------------|
E|----------------|0---------------|----------------|3-----------0---|

  |   |   |   |    |   |   |   |    |   |   |   |    |   |   |   |
e|5-----3---0-----|3-----2---------|------0---------|------0---------|
B|--3-------------|----------0-----|----3---3-------|----3---3-------|
G|----4---4-------|----0-----------|----------0---0-|--0-------0---0-|
D|----------------|--2-----2-------|--2-------------|----------------|
A|0---------------|----------------|3-----------3---|2-----------2---|
E|----------------|0---------------|----------------|----------------|

  |   |   |   |    |   |   |   |    |   |   |   |    |   |   |   |
e|------3---------|------0---------|----------------|--3---7---0------||
B|--0-------0-----|----------0-----|------0---------|----0---5--------||
G|----0---4-------|--2-----2-------|----0-----0-----|----------------•||
D|----------------|----5-----------|----------------|----------------•||
A|0---------------|----------------|--2-------------|-----------------||
E|----------------|0---------------|3-------3-------|0----------------||

  |   |   |   |    |   |   |   |    |   |   |   |    |   |   |   |
e|5-----3---0-----|3-----2---------|------0---------|------0---------|
B|--3-------------|----------0-----|----3---3-------|----3---3-------|
G|----4---4-------|----0-----------|----------0---0-|--0-------0---0-|
D|----------------|--2-----2-------|--2-------------|----------------|
A|0---------------|----------------|3-----------3---|----------------|
E|----------------|0---------------|----------------|3-----------0---|

  |   |   |   |    |   |   |   |    |   |   |   |    |   |   |   |
e|5-----3---0-----|3-----2---------|------0---------|------0---------|
B|--3-------------|----------0-----|----3---3-------|----3---3-------|
G|----4---4-------|----0-----------|----------0---0-|--0-------0---0-|
D|----------------|--2-----2-------|--2-------------|----------------|
A|0---------------|----------------|3-----------3---|2-----------2---|
E|----------------|0---------------|----------------|----------------|

  |   |   |   |    |   |   |   |    |   |   |   |    |   |   |   |
e|------3---------|------0---------|----------------|--3---7---0------||
B|--0-------0-----|----------0-----|------0---------|----0---5--------||
G|----0---4-------|--2-----2-------|----0-----0-----|----------------•||
D|----------------|----5-----------|----------------|----------------•||
A|0---------------|----------------|--2-------------|-----------------||
E|----------------|0---------------|3-------3-------|0----------------||

  |   |   |   |    |   |   |   |    |   |   |   |    |   |   |   |
e|5-----3---0-----|3-----2---------|------0---------|------0---------|
B|--3-------------|----------0-----|----3---3-------|----3---3-------|
G|----4---4-------|----0-----------|----------0---0-|--0-------0---0-|
D|----------------|--2-----2-------|--2-------------|----------------|
A|0---------------|----------------|3-----------3---|----------------|
E|----------------|0---------------|----------------|3-----------0---|

  |   |   |   |    |   |   |   |    |   |   |   |    |   |   |   |
e|5-----3---0-----|3-----2---------|------0---------|------0---------|
B|--3-------------|----------0-----|----3---3-------|----3---3-------|
G|----4---4-------|----0-----------|----------0---0-|--0-------0---0-|
D|----------------|--2-----2-------|--2-------------|----------------|
A|0---------------|----------------|3-----------3---|2-----------2---|
E|----------------|0---------------|----------------|----------------|

  |   |   |   |    |   |   |   |    |   |   |   |    |   |   |   |
e|------3---------|------0---------|----------------|--3---7---0------||
B|--0-------0-----|----------0-----|------0---------|----0---5--------||
G|----0---4-------|--2-----2-------|----0-----0-----|----------------•||
D|----------------|----5-----------|----------------|----------------•||
A|0---------------|----------------|--2-------------|-----------------||
E|----------------|0---------------|3-------3-------|0----------------||

  |   |   |   |    |   |   |   |    |   |   |   |    |   |   |   |
e|5-----3---0-----|3-----2---------|------0---------|------0---------|
B|--3-------------|----------0-----|----3---3-------|----3---3-------|
G|----4---4-------|----0-----------|----------0---0-|--0-------0---0-|
D|----------------|--2-----2-------|--2-------------|----------------|
A|0---------------|----------------|3-----------3---|----------------|
E|----------------|0---------------|----------------|3-----------0---|

  |   |   |   |    |   |   |   |    |   |   |   |    |   |   |   |
e|5-----3---0-----|3-----2---------|------0---------|------0---------|
B|--3-------------|----------0-----|----3---3-------|----3---3-------|
G|----4---4-------|----0-----------|----------0---0-|--0-------0---0-|
D|----------------|--2-----2-------|--2-------------|----------------|
A|0---------------|----------------|3-----------3---|2-----------2---|
E|----------------|0---------------|----------------|----------------|

  |   |   |   |    |   |   |   |    |   |   |   |    |   |   |   |
e|------3---------|------0---------|----------------|--3---7---0------||
B|--0-------0-----|----------0-----|------0---------|----0---5--------||
G|----0---4-------|--2-----2-------|----0-----0-----|----------------•||
D|----------------|----5-----------|----------------|----------------•||
A|0---------------|----------------|--2-------------|-----------------||
E|----------------|0---------------|3-------3-------|0----------------||

  |   |   |   |    |   |   |   |    |   |   |   |    |   |   |   |
e|5-----3---0-----|3-----2---------|------0---------|------0---------|
B|--3-------------|----------0-----|----3---3-------|----3---3-------|
G|----4---4-------|----0-----------|----------0---0-|--0-------0---0-|
D|----------------|--2-----2-------|--2-------------|----------------|
A|0---------------|----------------|3-----------3---|----------------|
E|----------------|0---------------|----------------|3-----------0---|

  |   |   |   |    |   |   |   |    |   |   |   |    |   |   |   |
e|5-----3---0-----|3-----2---------|------0---------|------0---------|
B|--3-------------|----------0-----|----3---3-------|----3---3-------|
G|----4---4-------|----0-----------|----------0---0-|--0-------0---0-|
D|----------------|--2-----2-------|--2-------------|----------------|
A|0---------------|----------------|3-----------3---|2-----------2---|
E|----------------|0---------------|----------------|----------------|

  |   |   |   |      |   |   |   |    4x
e|----------------||------------------||
B|----------------||---------------0--||
G|----------------||•------0-----0---•||
D|----------------||•----2-----2-----•||
A|----------------||---2-----2--------||
E|----------------||-0----------------||

   |   |   |   |    |   |   |   |    |   |   |   |    |   |   |   |
e||-5-----3---0-----|3-----2---------|------0---------|------0---------|
B||---3-------------|----------0-----|----3---3-------|----3---3-------|
G||•----4---4-------|----0-----------|----------0---0-|--0-------0---0-|
D||•----------------|--2-----2-------|--2-------------|----------------|
A||-0---------------|----------------|3-----------3---|----------------|
E||-----------------|0---------------|----------------|3-----------0---|

  |   |   |   |    |   |   |   |    |   |   |   |    |   |   |   |    12x
e|5-----3---0-----|3-----2---------|------0---------|------0----------||
B|--3-------------|----------0-----|----3---3-------|----3---3--------||
G|----4---4-------|----0-----------|----------0---0-|--0-------0---0-•||
D|----------------|--2-----2-------|--2-------------|----------------•||
A|0---------------|----------------|3-----------3---|2-----------2----||
E|----------------|0---------------|----------------|-----------------||


-----------------------
A LAMENT FOR MY SUZANNE
-----------------------
Time signature: 11/8
Tempo: ~95 BPM
Key: C minor
Tuning: Standard

Capo on fret 3

  Cm                     Cm
  | | | | | | | | | | |  | | | | | | | | | | |
e|0----------0-------0--|-------------------0---||
B|----1----------1------|1----------1------1----||
G|----------------------|----2----------2------•||
D|----------------------|----------------------•||
A|3----------3----------|3----------3-----------||
E|----------------------|-----------------------||

Repeat until the end


-------------
RIVERDEADBANK
-------------
Time signature: 8/8
Tempo: ~100 BPM
Key: F Major
Tuning: Standard


  |   |   |   |    |   |   |   |    |   |   |   |    |   |   |   |
e|0-------0-------|------0---------|0-------0-------|------0---------|
B|--6-------6-----|----6---6-------|--6-------6-----|----6---6-------|
G|----5-------5---|--5-------5-----|----4-------4---|--5-------5---5-|
D|------7-------7-|0-----------0-5-|7-----7-------7-|7-----------7---|
A|0---------------|----------------|----------------|----------------|
E|----------------|----------------|----------------|----------------|

  |   |   |   |    |   |   |   |    |   |   |   |    |   |   |   |
e|0-------0-------|------0---------|----------0-----|----------0------||
B|--6-------6-----|----6---6-------|------0-------1-|------0-------1--||
G|----5-------5---|--5-------5-----|----5-------4---|----5-------4---•||
D|------7-------7-|0-----------0-5-|--5-----5-------|--5-----5-------•||
A|0---------------|----------------|0---------------|0----------------||
E|----------------|----------------|----------------|-----------------||

Repeat until the end


--------------------------
ALL THE STARS ARE DEAD NOW
--------------------------
Time signature: 3/4
Tempo: ~135 BPM
Key: F Major
Tuning: Standard

F Am x4

       F
Bloody smoke
Am      F
  Foggy smoke
  Am           F         Am
Beginnings and endings...
F          Am           F
 There's a heart of the world
       Am         F
In the bowed bony Burren
          Am               F
There's a trip-hole to her heart
   Am              F
In soaring Snæfellsness
        Am           F
And the crack of the world
    Am          F
The moist ruddy lips of her
     Am                 F
Thee slit of the mother fallen
Am              F
Sliced from the stars
Am             F
By the slicing discus
   Am
At Kamarupa
At Kamarupa
   F
At Kamarupa

F Am

F         Am           F
 From her mouth at the end
       Am
Of the worlds
F         Am           F
 From her mouth at the end
       Am
Of the times
F    Am                   F
 The shapes that form the ends
       Am
Of the wheelings
F    Am                    F
 The forces that shape the forms
       Am
Of the breaths
     F         Am
That cover the clouds
F            Am     F     Am
Of the green world's last dancing's
F        Am         F             Am
 Flicker forth like spring-heeled jackals
    F            Am         F
All laughing and bloody and wrathful
    Am           F           Am
And peaceful and shining and pallid
    F           Am         F
And burning and liquid and sadness
    Am
And joy
    F
And joy
 Am         F              Am        F
(Mansour is smiling teethly at the stars
    Am                       F
John sits on the stairs with me
     Am               F
His eyes are shining -
       Am           F
Mother - come to me)
Am             F                  Am
Little lovely licking tongues of fire
F           Am      F            Am     F
Smiling and slyly emerge from the stones
    Am         F         Am
The air is now very very viscous
F          Am           F             Am
 In the distance Sunday children play pipes
    F          Am
The air is now very violent
F                Am
Birds do not fill the air
F              Am           F
 Laughing does not fill the air
   Am                 F
No bodies fill the air
        Am          F                  Am
But the sun filters slowly through the air
      F      Am        F            Am F
As if it has turned to sticky sweet mud
    Am      F
All flowers die
  Am            F
Except for some few
  Am               F
A chain of burning bloody flowers
Am            F       Am
Follow my eyes crying tears
F                 Am                  F
(Lilith is smiling at the corpse of a cow
    Am              F
And in that corpsey cow
               Am
The corpse of another
              F    Am
And so on and so on
       F           Am F
And perhaps forever
   Am             F           Am
If times were not folding and falling
F         Am   F
Over each other
    Am        F            Am
And so on and so on and so on
    F            Am   F
And certainly endless)
       Am        F
Mene mene tekel upharsin
             Am
We have been weighed and lost
F                        Am  F
We have been weighed and lost
   Am            F            Am
(I slept I dreamt I dreamed a dream:
F              Am               F
London bright fires smiling and burning
Am          F                    Am          F
Light roads road through the starlacked night
     Am            F               Am
Many dark suns are falling falling down
                   F       Am
London Bridge is destroyed)
           F               Am
In my mind pigs and rubble gnaw
            F                     Am    F
In the dark heights and hearts of Albion
           Am
Shudderings in the heart
F              Am
Cruelty in the heart
          F Am F Am
And this is over
    F       Am
All over now
F   Am
 In Kamarupa
F   Am      F
 In Kamarupa
   Am      F    Am
My eyes my mind spinning
                  F
Spinning back and forth
Am
Eyes in London
F             Am
Mind in a hole
F                 Am
Oh they come they come
They run out
F                Am
Fleeing from what
              F
They come out running
       Am
Running
      F           Am     F            Am
Great Babylon has fallen fallen fallen
         F       Am         F
Jerusalem has fallen fallen fallen
    Am          F
The great great beast
   Am                 F
Is dead dead dead dead
Am     F        Am             F
Simon, Simon is dead dead dead dead
    Am         F        Am
And some other bleeding children
    F
Are smiling
         Am          F
They're dead in the rubble
        Am             F
They're dead dead dead dead
    Am       F
And Mercury rises
    Am      F
And Mercury falls
    Am            F
And how dead dead dead dead
     Am            F
Dead dead dead are you
Am        F
Summertime
         Am        F   Am
When the living is easy
F
Summertime
         Am        F
When the dying is easy
Am F Am F

    Am             F
The world shudders on
          Am                 F
Black tree against a bruised blue sky
Am                      F                Am
  The fairground is all shabby and silent
           F
Red sky at night
           Am
Red sky at night
      F
Danger
             Am
Christ is crying
          F
Christ's tears leaving
    Am
His night and heart
F            Am
All the many faces we have worn
F                 Am            F
All the many faces we have borne
    Am             F
And dead dead dead dead dead dead
Am             F             Am F
Dead dead dead dead dead are we
       Am            F
Though once I thought
   Am         F
Oh once I read
    Am               F
The hidden god plays hide and seek
       Am              F
Whilst others still run from him
Am               F
From the world's stomach
    Am            F
The goddies emerge
    Am                F
And who comes to judge us
    Am               F
And who comes to push us
    Am           F
The bloody master
   Am               F
Is bloody dead dead dead
    Am           F
And who comes to strike us
    Am           F
And who comes to hold us
Am           F
Where is his colour
Am           F
Where is her cover
    Am            F
And What is her nature
    Am            F
And where does he shine from
Am                 F
(Broken birds move through the air -
Am                   F
They all drink blood)
  Am              F    Am       F
When Christ smiles his smile is broken
 Am          F          Am
Holly ivy old dead trees
          F
Dead dead dead
Am         F Am         F
Holly and ivy dead dead dead dead
     Am
Dead dead dead dead
F              Am  F
Dead dead dead dead
Am            F    Am
Rainbow lovely arc lovely lights
F              Am
Dead dead dead dead
     F                Am
Horn stag cross meets hunter
F              Am
Dead dead dead dead
    F            Am      F
(Oh Saint Eustace ora pro nobis)
Am            F      Am      F
Old woman old woman old woman
Am      F              Am  F
Old and dead dead dead dead
Am     F
Now no summers left
Am           F
This side of boxwood
Am                F     Am    F
Crosses broken in my midsummer
    Am
The south is dying
    F
The north is dying
F
The west is dying
Am                F
 The east is dying
      Am       F              Am        F
There are four corners to the world she said
 Am       F
And every one
       Am
Is dead dead dead dead
    F          Am  F
Dead dead dead dead
Am            F
Dead dead dead dead dead
     Am  F  Am
Dead dead   dead dead
     F              Am  F
Dead dead dead dead dead
    Am      F      Am
And all the planets
        F              Am
They're dead dead dead dead
    F      Am
And all my heart
   F              Am
Is dead dead dead dead
F              Am             F
Dead dead dead dead dead dead dead
          Am             F    Am
Dead dead dead dead dead dead dead
     F             Am
It's all dead dead dead


---------------------------
ROSY STAR TEARS FROM HEAVEN
---------------------------
Time signature: 4/4
Tempo: ~95 BPM
Key: D minor
Tuning: Standard

There are broken birds scattered over the white cliffs of Dover...

Dm           Bb
  Once I read  and so I thought
Em
Firstly the red dragon rises in the East
Dm        Bb
  So I sat  and still I thought
Em
Then the white dragon rises from the North
Dm               Bb
  I start to walk  my mind turns
Em
Out of clouds a smokish dragon rises from the West
Dm              Bb
  It seems to me  the world is dying
Em
Smiling teeth and black dragon rises in the South
F                 Am
 Whilst rosy stars  fall from heaven
Em
Turn to starry roses in greening grasses
F                 Am  
 Burnt burning smiles lovers' tokens
Em
Soft white breasts unveiling nature
Dm               Bb
  My mother sighs  my father lies
Em
With scattered pebbles dying horses
Dm
  The moon is violet
Bb
  Violent and vapourous
Em
  Seas of horses buildings tumble


Dm           Bb
  Once I read  and so I thought
Em
Firstly the red dragon rises in the East
Dm            Bb
  I shall move  and still I'll think
Em
Then the white dragon rises from the North
Dm              Bb
  All this world  is such a bind
Em
Out of clouds a smokish dragon from the West
Dm              Bb
  It seems to me  people smile
Em
Smiling teeth and black dragon rises in the South
F            Am
 Whilst rosy stars fall from heaven
Em
Turn to starry roses in green grasses
F             Am
 Burn burning smiles lovers' tokens
Em
  Soft white breasts unveiling nature
Dm               Bb
  My mother sighs  my father lies
Em
  Scattered pebbles the world tails
Dm                  Bb
  The moon is violet  violent and vaporous
Em
  Seas of horses part for me
Dm


-----------------------
WHEN THE MAY RAIN COMES
-----------------------
Time signature: 4/4
Tempo: ~100 BPM
Key: D minor
Tuning: Standard

  Dm               Dm                 Dm               A                A
  |   |   |   |    |   |   |   |    3x|   |   |   |    |   |   |   |    |   |   |   |
e|--1-----1-------|--1-----1--------||--1-----1-------|--5-----5-------|--5-------5-3-1-|
B|---3--3---3---3-|---3--3---3---3--||---3--3---3---3-|---5--5---5---5-|---5--5---------|
G|-----2------2---|-----2------2---•||-----2------2---|-----6------6---|-----6----------|
D|0-------0-------|0------0--------•||0-------0-------|----------------|----------------|
A|----------------|-----------------||---------------/|7-------7-------|7-------7-------|
E|----------------|-----------------||----------------|----------------|----------------|

    Dm               Dm                 Dm               A                A
    |   |   |   |    |   |   |   |      |   |   |   |    |   |   |   |    |   |   |   |
e||---1-----1-------|--1-----1--------||--1-----1-------|--5-----5-------|--5-------5-3-1-|
B||----3--3---3---3-|---3--3---3---3--||---3--3---3---3-|---5--5---5---5-|---5--5---------|
G||•-----2------2---|-----2------2---•||-----2------2---|-----6------6---|-----6----------|
D||•0-------0-------|0------0--------•||0-------0-------|----------------|----------------|
A||-----------------|-----------------||---------------/|7-------7-------|7-------7-------|
E||-----------------|-----------------||----------------|----------------|----------------|

    Dm               Dm                 Dm               A                A
    |   |   |   |    |   |   |   |      |   |   |   |    |   |   |   |    |   |   |   |
e||---1-----1-------|--1-----1--------||--1-----1-------|--5-----5-------|--5-------5-3-1-|
B||----3--3---3---3-|---3--3---3---3--||---3--3---3---3-|---5--5---5---5-|---5--5---------|
G||•-----2------2---|-----2------2---•||-----2------2---|-----6------6---|-----6----------|
D||•0-------0-------|0------0--------•||0-------0-------|----------------|----------------|
A||-----------------|-----------------||---------------/|7-------7-------|7-------7-------|
E||-----------------|-----------------||----------------|----------------|----------------|

    Dm               Dm                 Dm               A                A
    |   |   |   |    |   |   |   |      |   |   |   |    |   |   |   |    |   |   |   |
e||---1-----1-------|--1-----1--------||--1-----1-------|--5-----5-------|--5-------5-3-1-|
B||----3--3---3---3-|---3--3---3---3--||---3--3---3---3-|---5--5---5---5-|---5--5---------|
G||•-----2------2---|-----2------2---•||-----2------2---|-----6------6---|-----6----------|
D||•0-------0-------|0------0--------•||0-------0-------|----------------|----------------|
A||-----------------|-----------------||---------------/|7-------7-------|7-------7-------|
E||-----------------|-----------------||----------------|----------------|----------------|

    Dm               Dm                 Dm               A                A
    |   |   |   |    |   |   |   |      |   |   |   |    |   |   |   |    |   |   |   |
e||---1-----1-------|--1-----1--------||--1-----1-------|--5-----5-------|--5-------5-3-1-|
B||----3--3---3---3-|---3--3---3---3--||---3--3---3---3-|---5--5---5---5-|---5--5---------|
G||•-----2------2---|-----2------2---•||-----2------2---|-----6------6---|-----6----------|
D||•0-------0-------|0------0--------•||0-------0-------|----------------|----------------|
A||-----------------|-----------------||---------------/|7-------7-------|7-------7-------|
E||-----------------|-----------------||----------------|----------------|----------------|

    Dm               Dm                 A                A
    |   |   |   |    |   |   |   |      |   |   |   |    |   |   |   |
e||---1-----1-------|--1-----1--------||--5-----5-------|--5-------5-3-1-|
B||----3--3---3---3-|---3--3---3---3--||---5--5---5---5-|---5--5---------|
G||•-----2------2---|-----2------2---•||-----6------6---|-----6-6--------|
D||•0-------0-------|0------0--------•||----------------|----------------|
A||-----------------|-----------------||7-------7-------|7-------7-------|
E||-----------------|-----------------||----------------|----------------|

    Dm               Dm                 Dm               A                A
    |   |   |   |    |   |   |   |      |   |   |   |    |   |   |   |    |   |   |   |
e||---1-----1-------|--1-----1--------||--1-----1-------|--5-----5-------|--5-------5-3-1-|
B||----3--3---3---3-|---3--3---3---3--||---3--3---3---3-|---5--5---5---5-|---5--5---------|
G||•-----2------2---|-----2------2---•||-----2------2---|-----6------6---|-----6----------|
D||•0-------0-------|0------0--------•||0-------0-------|----------------|----------------|
A||-----------------|-----------------||---------------/|7-------7-------|7-------7-------|
E||-----------------|-----------------||----------------|----------------|----------------|

    Dm               Dm                 Dm               A                A
    |   |   |   |    |   |   |   |      |   |   |   |    |   |   |   |    |   |   |   |
e||---1-----1-------|--1-----1--------||--1-----1-------|--5-----5-------|--5-------5-3-1-|
B||----3--3---3---3-|---3--3---3---3--||---3--3---3---3-|---5--5---5---5-|---5--5---------|
G||•-----2------2---|-----2------2---•||-----2------2---|-----6------6---|-----6----------|
D||•0-------0-------|0------0--------•||0-------0-------|----------------|----------------|
A||-----------------|-----------------||---------------/|7-------7-------|7-------7-------|
E||-----------------|-----------------||----------------|----------------|----------------|

    Dm               Dm                 A                A
    |   |   |   |    |   |   |   |      |   |   |   |    |   |   |   |
e||---1-----1-------|--1-----1--------||--5-----5-------|--5-------5-3-1-|
B||----3--3---3---3-|---3--3---3---3--||---5--5---5---5-|---5--5---------|
G||•-----2------2---|-----2------2---•||-----6------6---|-----6----------|
D||•0-------0-------|0------0--------•||----------------|----------------|
A||-----------------|-----------------||7-------7-------|7-------7-------|
E||-----------------|-----------------||----------------|----------------|

    Dm               Dm                 A                A
    |   |   |   |    |   |   |   |      |   |   |   |    |   |   |   |
e||---1-----1-------|--1-----1--------||--5-----5-------|--5-------5-3-1-|
B||----3--3---3---3-|---3--3---3---3--||---5--5---5---5-|---5--5---------|
G||•-----2------2---|-----2------2---•||-----6------6---|-------6--------|
D||•0-------0-------|0------0--------•||----------------|----------------|
A||-----------------|-----------------||7-------7-------|7-------7-------|
E||-----------------|-----------------||----------------|----------------|

   Dm
   |   |   |   |     10x
e||---1-----1--------||
B||----3--3---3---3--||
G||•-----2------2---•||
D||•0-------0-------•||
A||------------------||
E||------------------||


---------------------
HITLER AS KALKI (SDM)
---------------------
Time signature: 4/4
Tempo: ~100 BPM
Key: G Mixolydian
Tuning: Drop D


      |       |         |       |       |       |        |       |       |       |
E|--------------------||---------------------------------|---------------------------------||
A|--------------------||---------------------------------|---------------------------------||
d|--------------------||•--------------------------------|--------------------------------•||
G|3---3---0---0---0-0-||•2---2---2---2---2---2---2---2---|2---2---2---3---3---0---0---0-0-•||
B|3---3---0---0---0-0-||-2---2---2---2---2---2---2---2---|2---2---2---3---3---0---0---0-0--||
D|3---3---0---0---0-0-||-2---2---2---2---2---2---2---2---|2---2---2---3---3---0---0---0-0--||
                         >           >           >        >

Repeat until the end.






**********
/ slide up
> accent
**********
Добавлено: 25.06.2016
Другие материалы по этой песне:
  • Аккорды и текст

Страница создана 25.06.2016
http://primanota.ru/current-93/thunder-perfect-mind-album-chords.htm
Привет, Гость.
Предлагаем пройти революционный курс по гитаре.
Подарок от PrimaNota.Ru, забирай!