PrimaNota.ru - самый крупный в мире бесплатный архив песенных текстов, аккордов, табулатур и нот


Current-93 - Moonlight Or Other Dreams Or Other Fields - таба, видео

Регистрация Запомнить меня
Войти через:  Facebook Google Twitter Vk Yandex Mail.ru

Current-93 - Moonlight Or Other Dreams Or Other Fields - таба, видео

Печатать
Просмотров: 123
Band/Song: Current 93 - Moonlight, or Other Dreams, or Other Fields
Album: Soft Black Stars

Tabbed by: RhoninX - http://profile.ultimate-guitar.com/RhoninX/
Email: lisekpl(a)o2.pl
Date: 11.08.2009

Tuning: Standard


That's the main melody transcribed for the solo guitar. No background inside!

              H         H             E   E   E   E  H          
E||-------|-----------------------|----------------------------|
B||-------|--10~------------------|--13--12--10----------------|
G||-------|-------------9~--------|--------------12--9~--------|
D||-------|-----------------------|----------------------------|
A||-------|-----------------------|----------------------------|
E||-------|-----------------------|----------------------------|


   Q    Q     Q    E   E     Q     S     E.   Q    E  E   
--------------------------|------------------------------|
--10----------------------|------------------------------|
--------9----------9--10--|--9----(9)h-(10)---9----------|
-------------12-----------|------------------------7--9--|
--------------------------|------------------------------|
--------------------------|------------------------------|


   Q    E  E   H             H          E   E  E   E   
-------------------------|----------------------------|
-------------------------|----------------------------|
--------7--9--10~--------|--12~--------12--10--9------|
--10---------------------|------------------------12--|
-------------------------|----------------------------|
-------------------------|----------------------------|


  Q      Q     E   E  Q       W                  
---------------------------|-------------------||
---------------------------|-------------------||
--9~-----------------------|--9----------------||
--------10----12--10--9----|-------------------||
---------------------------|-------------------||
---------------------------|-------------------||




Duration Legend
---------------
W - whole
H - half
Q - quarter
E - 8th
S - 16th
. - note dotted


Tablature Legend
----------------
(n) - ghost note
h - hammer on
f downwards
~ - vibrato
Добавлено: 08.07.2012
Другие материалы по этой песне:
  • Аккорды и текст

Страница создана 08.07.2012
http://primanota.ru/current-93/moonlight-or-other-dreams-or-other-fields-chords.htm
Привет, Гость.
Предлагаем пройти революционный курс по гитаре.
Подарок от PrimaNota.Ru, забирай!