PrimaNota.ru - самый крупный в мире бесплатный архив песенных текстов, аккордов, табулатур и нот


Curly Heads - Young Talk - аккорды и текст, видео

Регистрация Запомнить меня
Войти через:  Facebook Google Twitter Vk Yandex Mail.ru

Curly Heads - Young Talk - аккорды и текст, видео

Печатать
Просмотров: 145
Уроки эстрадного вокала в Санкт-Петербурге
Young Talk
Curly Heads
-------------------------------------------------------------------------------
                             Young Talk - Curly Heads
-------------------------------------------------------------------------------

e|-------0------0------0-----0------0-----0-----0-----0------------------------|
B|--------0------0------0-----0------0-----0-----0-----0-----------------------|
G|------0------0-----0-----0------0-----0--------------------------------------|
D|-----2------2-----0-----0----------------------------------------------------|
A|------------------------------3------3------2-----2--------------------------|
E|-------------------------------------------3-----3---------------------------|


Em            D                           C
I'm sitting in my home I'm seventeen years old
             G         Em
Life is simple, is it? No
                  D
I worry about the days
             C
That I'm gonna face
       G                   Em
Will I live after my death?
              D                        C
I'm sure that everyone thinks about it sometimes
             G                     Em
Admit you're scared, don't be afraid


D C G

Em        D                 C
Open your eyes and you will see
                G                  Em
That you're not dead, you're gonna live
         D                   C
Don't be afraid to live your life
                      G                        Em
It's the one you will get, in this one you can try


D C G Em x2

                     D
I know that how it's gonna be
               C
Really depends on me
                   G
But that knowledge doesn't help
                       Em
I still think that I'm small like sand
            D                              C          G
I'm sitting in my home I'm seventeen years old, is it simple?

Well, you know


Em        D                 C
Open your eyes and you will see
                G                  Em
That you're not dead, you're gonna live
         D                   C
Don't be afraid to live your life
                      G                        Em
It's the one you will get, in this one you can try x3
Добавлено: 31.07.2015
Другие материалы по этой песне:
  • Аккорды и текст

Страница создана 31.07.2015
http://primanota.ru/curly-heads/young-talk-chords.htm
Привет, Гость.
Предлагаем пройти революционный курс по гитаре.
Подарок от PrimaNota.Ru, забирай!