PrimaNota.ru - самый крупный в мире бесплатный архив песенных текстов, аккордов, табулатур и нот


Cure - The Reasons Why - текст песни, таба, видео

Регистрация Запомнить меня
Войти через:  Facebook Google Twitter Vk Yandex Mail.ru

Cure - The Reasons Why - текст песни, таба, видео

Печатать
Просмотров: 178
the cure
the reasons why
by ::Luchitox::

 Intro

 Gtr.1 (R.Smith)

    p.m    p.m                   p.m
 e ------------------------------------------------|
 B ------------------------------------------------|
 G ------------------------------------------------|
 D ------5-----5---5-5---5-5-5-5-----7---7-5-5-5-5-|
 A ----3---3-3-3-3-3-3-3-5-5-5-7-7-7-7-7-7-7-5-5-5-|
 E --X---------------------------------------7-7-7-|

 e ------------------------------------------------|
 B ------------------------------------------------|
 G ----------------------------------7---7-0-------|
 D ------5-----5---5-5---5-5-5-5-----5---5-5-5-5-5-|
 A ----3---3-3-3-3-3-3-3-5-5-5-7-7-7-7-7-7-7-5-5-5-|
 E --X---------------------------------------7-7-7-|

 Repeat all of this and keep using palm mute constantly


 Gtr.2 (Porl)

 e ---0--0--0--0--0--0--0--0--0-0--0~~~0--0--0--|
 B --13-13-13-12-12-12-12-10-10-8-10~~10/12-12--|
 G ---------------------------------------------|
 D ---------------------------------------------|
 A ---------------------------------------------|
 E ---------------------------------------------|

 e ---------------------------------------------|
 B --17-17-17-15-15-15-15-13-13-12-13-13\12~~~--|
 G --17-17-17-16-16-16-16-14-14-12-14-14\12~~~--|
 D ---------------------------------------------|
 A ---------------------------------------------|
 E ---------------------------------------------|


 Gtr.1

 And I am falling through the stars


 e ----------------------------------------------|
 B ----------------------------------------------|
 G ----------------------------------------------|
 D --2-2-2-2-2-2-2--4-4-4--5-5-5-5-5-5-5-X-7-7-7-|
 A --0-0-0-0-0-0-0--2-2-2--3-3-3-3-3-3-3-X-5-5-5-|
 E ----------------------------------------------|


 Gtr.2

 e ------------------------7---|
 B ------8--------10-----------|
 G ----5--------7--------9-----|
 D --7--------9-------10-------|
 A ----------------------------|
 E ----------------------------|

 Gtr.1

 We know they said! you're holding on

 e -------------------------------------------------|
 B -------------------------------------------------|
 G -------------------------------------------------|
 D --5-5-5-5-5-5-5-5-7-7-7--2-2-2-2-2-2-2-2-X-5-5-5-|
 A --3-3-3-3-3-3-3-3-5-5-5--2-2-2-2-2-2-2-2-X-2-2-2-|
 E -------------------------0-0-0-0-0-0-0-0---------|

 Repeat

 * ~~   let it ring

 * /    slide up

 * \    slide down

 * p.m. palm mute

 * X    dead note
Добавлено: 06.03.2012
Другие материалы по этой песне:

Страница создана 06.03.2012
http://primanota.ru/cure/the-reasons-why-chords.htm
Привет, Гость.
Предлагаем пройти революционный курс по гитаре.
Подарок от PrimaNota.Ru, забирай!